Song name
# A B C D E F G H I J K L M N O P Q R S T U V W X Y Z

Buzzcocks - Soul Survivor tab

  Soul Survivor - Buzzcocks
-------------------------------------------------------------------------------
Tabbed by:PUNKFAN101
Album: Flat-pack Philosophy (Cooking Vinyl 06)
Written by:Steve Diggle

Tuning:Standard
Intro
e|---------------------------------------------------------------------------|
B|---------------------------------------------------------------------------|
G|---------------------------------------------------------------------------|
D|--7777-5-------------------------------------------------------------------|
A|--5555-3-------------------------------------------------------------------|
E|---------------------------------------------------------------------------|
Verse
e|---------------------------------------------------------------------------|
B|---------------------------------------------------------------------------|
G|---------------------------------------------------------------------------|
D|-7777-3333--77777777-------------------------------------------------------|
A|-5555-1111--55555555-------------------------------------------------------|
E|---------------------------------------------------------------------------|
Chorus
e|-----------------------------------------------------------------------------|
B|-----------------------------------------------------------------------------|
G|-----------------------------------------------------------------------------|
D|-----------------------------------------------------------------------------|
A|--5555-7777--8--x8-----------------------------------------------------------|
E|--7777-9999--10--------------------------------------------------------------|
Outro
e|------------------------------------------------------------------------------|
B|------------------------------------------------------------------------------|
G|------------------------------------------------------------------------------|
D|-77777777---7x7x7x7x7--Let Ring-----------------------------------------------|
A|-55555555---5x5x5x5x5---------------------------------------------------------|
E|------------------------------------------------------------------------------|

Song Order:
Intro x4
Verse x4
Chorus x2
Verse x4
Chorus x4
Outro

| /  slide up
| \  slide down
| h  hammer-on
| p  pull-off
| ~  vibrato
| +  harmonic
| x  Mute note
===============================================================================
Tap to rate this tab
# A B C D E F G H I J K L M N O P Q R S T U V W X Y Z