Song name
# A B C D E F G H I J K L M N O P Q R S T U V W X Y Z

Buzzcocks - Ever Fallen In Love tab

    _____________________________________
   /Credit to Joe Swabey who wrote most / 
  / of this out, I just edited and     /
 / finalised bits and posted it here. /
/____________________________________/

Tuning: Standard (EADGBE) 

[Although this tab is written using power chords it is actually played using
barre chords; because of this an ideal song for beginers I wrote the tab with
power chords. More experianced players can substitute in the real barre chords 
which are listed at the foot of the page.]
  
When ever you see an 'E' Riff the lead guitar plays...
e|----------2-0|
B|--2p0-00-----|   ...except in the Link, the 'E' Riff plays twice then     
G|1------------|   this plays over the next four.
D|-2-----------|
A|-------------|
E|-------------|

Intro:
e|------------------------------------------|
B|------------------------------------------|
G|---6-6-6-6-6-6-6-6-6-6-6-6-\2-2-----------|   x2
D|---6-6-6-6-6-6-6-6-6-6-6-6-\2-2-----------|
A|---4-4-4-4-4-4-4-4-4-4-4-4-\4-4-----------|
E|------------------------------------------|

e|---0-0-0-0-0-0-0-0-0-0-0-0-0-0-0-0--------|
B|---0-0-0-0-0-0-0-0-0-0-0-0-0-0-0-0--------|
G|---1-1-1-1-1-1-1-1-1-1-1-1-1-1-1-1--------|   x2
D|---2-2-2-2-2-2-2-2-2-2-2-2-2-2-2-2--------|
A|---2-2-2-2-2-2-2-2-2-2-2-2-2-2-2-2--------|
E|---0-0-0-0-0-0-0-0-0-0-0-0-0-0-0-0--------|

Verse 1(x2):
e|------------------------------------------|
B|------------------------------------------|
G|---6-6-6-6-6-6-6-6-6-6-6-6-\2-2-----------|   x2
D|---6-6-6-6-6-6-6-6-6-6-6-6-\2-2-----------|
A|---4-4-4-4-4-4-4-4-4-4-4-4-\4-4-----------|
E|------------------------------------------|

e|---0-0-0-0-0-0-0-0-0-0-0-0-0-0-0-0--------|            
B|---0-0-0-0-0-0-0-0-0-0-0-0-0-0-0-0--------|     
G|---1-1-1-1-1-1-1-1-1-1-1-1-1-1-1-1--------|   x2 (Riff)
D|---2-2-2-2-2-2-2-2-2-2-2-2-2-2-2-2--------|
A|---2-2-2-2-2-2-2-2-2-2-2-2-2-2-2-2--------|
E|---0-0-0-0-0-0-0-0-0-0-0-0-0-0-0-0--------|

Chorus 1:
e|------------------------|
B|------------------------|
G|---6-6-666-\2-2-2-222/--|   x2
D|---6-6-666-\2-2-2-222/--|
A|---4-4-444-\4-4-4-444/--|
E|------------------------|

e|-------------------------------------------------------------------|
B|-------------------------------------------------------------------|
G|---7-7-7-7-x---------------------9----------9----------------------|
D|---7-7-7-7-x--7-7-7-7-7-7-x--9-9-9-9-x--9-9-9-9-x------------------|
A|---5-5-5-5-x--7-7-7-7-7-7-x--9-9-7-9-x--9-9-7-9-x------------------|
E|--------------5-5-5-5-5-5-x--7-7---7-x--7-7---7-x------------------|

Verse 2(x2):
e|------------------------------------------|
B|------------------------------------------|
G|---6-6-6-6-6-6-6-6-6-6-6-6-\2-2-----------|   x2
D|---6-6-6-6-6-6-6-6-6-6-6-6-\2-2-----------|
A|---4-4-4-4-4-4-4-4-4-4-4-4-\4-4-----------|
E|------------------------------------------|

e|---0-0-0-0-0-0-0-0-0-0-0-0-0-0-0-0--------|
B|---0-0-0-0-0-0-0-0-0-0-0-0-0-0-0-0--------|
G|---1-1-1-1-1-1-1-1-1-1-1-1-1-1-1-1--------|   x2(Riff)
D|---2-2-2-2-2-2-2-2-2-2-2-2-2-2-2-2--------|
A|---2-2-2-2-2-2-2-2-2-2-2-2-2-2-2-2--------|
E|---0-0-0-0-0-0-0-0-0-0-0-0-0-0-0-0--------|

Chorus 2:
e|------------------------|
B|------------------------|
G|---6-6-666-\2-2-2-222/--|   x2
D|---6-6-666-\2-2-2-222/--|
A|---4-4-444-\4-4-4-444/--|
E|------------------------|

e|-------------------------------------------------------------------|
B|-------------------------------------------------------------------|
G|---7-7-7-7-x---------------------9----------9----------------------|
D|---7-7-7-7-x--7-7-7-7-7-7-x--9-9-9-9-x--9-9-9-9-x------------------|
A|---5-5-5-5-x--7-7-7-7-7-7-x--9-9-7-9-x--9-9-7-9-x------------------|
E|--------------5-5-5-5-5-5-x--7-7---7-x--7-7---7-x------------------|

Verse 3(x2):
e|------------------------------------------|
B|------------------------------------------|
G|---6-6-6-6-6-6-6-6-6-6-6-6-\2-2-----------|   x2
D|---6-6-6-6-6-6-6-6-6-6-6-6-\2-2-----------|
A|---4-4-4-4-4-4-4-4-4-4-4-4-\4-4-----------|
E|------------------------------------------|

e|---0-0-0-0-0-0-0-0-0-0-0-0-0-0-0-0--------|
B|---0-0-0-0-0-0-0-0-0-0-0-0-0-0-0-0--------|
G|---1-1-1-1-1-1-1-1-1-1-1-1-1-1-1-1--------|   x2 (Riff)
D|---2-2-2-2-2-2-2-2-2-2-2-2-2-2-2-2--------|
A|---2-2-2-2-2-2-2-2-2-2-2-2-2-2-2-2--------|
E|---0-0-0-0-0-0-0-0-0-0-0-0-0-0-0-0--------|

Chorus 3(x2):
e|------------------------|
B|------------------------|
G|---6-6-666-\2-2-2-222/--|   x2
D|---6-6-666-\2-2-2-222/--|
A|---4-4-444-\4-4-4-444/--|
E|------------------------|
___
e|-------------------------------------------------------------------|
B|-------------------------------------------------------------------|
G|---7-7-7-7-x---------------------9----------9----------------------|
D|---7-7-7-7-x--7-7-7-7-7-7-x--9-9-9-9-x--9-9-9-9-x------------------|
A|---5-5-5-5-x--7-7-7-7-7-7-x--9-9-7-9-x--9-9-7-9-x------------------|
E|--------------5-5-5-5-5-5-x--7-7---7-x--7-7---7-x------------------|

Link (x3)
e|---0-0-0-0-0-0-0-0-0-0-0-0-0-0-0-0--------|
B|---0-0-0-0-0-0-0-0-0-0-0-0-0-0-0-0--------|
G|---1-1-1-1-1-1-1-1-1-1-1-1-1-1-1-1--------|   x2 (Riff)(Not first two  
D|---2-2-2-2-2-2-2-2-2-2-2-2-2-2-2-2--------|             riffs played 
A|---2-2-2-2-2-2-2-2-2-2-2-2-2-2-2-2--------|             in last four.)
E|---0-0-0-0-0-0-0-0-0-0-0-0-0-0-0-0--------|

Chorus 4:
e|------------------------|
B|------------------------|
G|---6-6-666-\2-2-2-222/--|   x2
D|---6-6-666-\2-2-2-222/--|
A|---4-4-444-\4-4-4-444/--|
E|------------------------|

e|-------------------------------------------------------------------|
B|-------------------------------------------------------------------|
G|---7-7-7-7-x---------------------9----------9----------------------|
D|---7-7-7-7-x--7-7-7-7-7-7-x--9-9-9-9-x--9-9-9-9-x------------------|
A|---5-5-5-5-x--7-7-7-7-7-7-x--9-9-7-9-x--9-9-7-9-x------------------|
E|--------------5-5-5-5-5-5-x--7-7---7-x--7-7---7-x------------------|

Outro:
e|------------------------------------------------------------0------|
B|------------------------------------------------------------0------|
G|-------7----------7-----------------------4-4-4-4-4-4-4-4---1------|
D|---7-7-7-7-x--7-7-7-7-x--5-5-5-5-5-5-5-5--4-4-4-4-4-4-4-4---2------|
A|---7-7-5-7-x--7-7-5-7-x--5-5-5-5-5-5-5-5--2-2-2-2-2-2-2-2---2------|
E|---5-5---5-x--5-5---5-x--3-3-3-3-3-3-3-3--------------------0------|

There you go, a nice easy song for beginers. The power chords can be played as
barre chords but as this is a good song for beginers (like me) I thought power 
chords would be better. I listed the full chord versions below...
============================================================================
  C#maj      Bmaj  (open)Emaj    Dmaj      Amaj      Bmaj      Emaj   
e|-x=-4-| e|-x=-2-| e-0-|     e|-x=-5-| e|-x=-5-| e|-x=-5-| e|-x=-5-|(This 
B|-x=-6-| B|-x=-4-| B-0-|     B|-x=-7-| B|-x=-5-| B|-x=-5-| B|-x=-7-|is up  
G|-6=-6-| G|-4=-4-| G-1-|     G|-7=-7-| G|-x=-6-| G|-x=-6-| G|-7=-7-|1 
D|-6=-6-| D|-4=-4-| D-2-|     D|-7=-7-| D|-7=-7-| D|-7=-7-| D|-7=-7-|octave 
A|-4=-4-| A|-2=-2-| A-2-|     A|-5=-5-| A|-7=-7-| A|-7=-7-| A|-5=-5-|from 
E|-x=-x-| E|-x=-X-| E-0-|     E|-x=-x-| E|-5=-5-| E|-5=-5-| E|-x=-x-|open E)

   Gmaj
e|-x=-3-|   Let me know what you think of this, I know it isn't layed out 
B|-x=-3-|   great but it's the best I can do right now. Any corrections or
G|-x=-4-|   improvements to nutsinatin@hotmail.co.uk please! Also please 
D|-5=-5-|   rate honestly.
A|-5=-5-|
E|-3=-3-|
Tap to rate this tab
# A B C D E F G H I J K L M N O P Q R S T U V W X Y Z