Song name
# A B C D E F G H I J K L M N O P Q R S T U V W X Y Z

Buzzcocks - Ever Fallen In Love tab

Intro (Both Guitars):

e|------------------------------------------|
b|------------------------------------------|
g|--6-6-6-6-6-6-6-6-6-6-6-6-6-6-6-----------|
d|--6-6-6-6-6-6-6-6-6-6-6-6-6-6-6---9-9-9---|
a|--4-4-4-4-4-4-4-4-4-4-4-4-4-4-4---9-9-9---|
e|----------------------------------7-7-7---|   x2

0:05 (Guitar one)             (Guitar two)

e|-----------2-0~-|           e|---------|
b|-----2-0~-------|           b|---------|
g|--1-------------|           g|---------|
d|---2------------|           d|--2~-----|
a|----------------|           a|--2~-----|
e|----------------| x2        e|--0~-----| x2 (let this ring over the top of
                                               guitar one's riff)

Verse 0:11 (Both Guitars):

e|------------------------------------------|
b|------------------------------------------|
g|--6-6-6-6-6-6-6-6-6-6-6-6-6-6-6-----------|
d|--6-6-6-6-6-6-6-6-6-6-6-6-6-6-6---9-9-9---|
a|--4-4-4-4-4-4-4-4-4-4-4-4-4-4-4---9-9-9---|
e|----------------------------------7-7-7---|   x2

0:17 (Guitar one)             (Guitar two)

e|-----------2-0~-|           e|---------|
b|-----2-0~-------|           b|---------|
g|--1-------------|           g|---------|
d|---2------------|           d|--2~-----|
a|----------------|           a|--2~-----|
e|----------------| x2        e|--0~-----| x2

0:22 (Both Guitars):

e|------------------------------------------|
b|------------------------------------------|
g|--6-6-6-6-6-6-6-6-6-6-6-6-6-6-6-----------|
d|--6-6-6-6-6-6-6-6-6-6-6-6-6-6-6---9-9-9---|
a|--4-4-4-4-4-4-4-4-4-4-4-4-4-4-4---9-9-9---|
e|----------------------------------7-7-7---|   x2

0:27 (Guitar one)             (Guitar two)

e|-----------2-0~-|           e|---------|
b|-----2-0~-------|           b|---------|
g|--1-------------|           g|---------|
d|---2------------|           d|--2~-----|
a|----------------|           a|--2~-----|
e|----------------| x2        e|--0~-----| x2

Chorus 0:33 (Both Guitars):

e|---------------------------|
b|---------------------------|
g|--6-6-6-6-6-6-6------------|
d|--6-6-6-6-6-6-6--9-9-9-9-9-|
a|--4-4-4-4-4-4-4--9-9-9-9-9-|
e|-----------------7-7-7-7-7-| x2

then...(Both Guitars):

e|----------------------------------------|
b|----------------------------------------|
g|--7-7-7-7-7---------------9--------9----|
d|--7-7-7-7-7--7-7-7-7-7--9-9-9--9-9-9-9--|
a|--5-5-5-5-5--7-7-7-7-7--9-7-9--9-9-7-9--|
e|-------------5-5-5-5-5--7---7--7-7---7--|

Back to verse 0:44 (Both Guitars):

e|------------------------------------------|
b|------------------------------------------|
g|--6-6-6-6-6-6-6-6-6-6-6-6-6-6-6-----------|
d|--6-6-6-6-6-6-6-6-6-6-6-6-6-6-6---9-9-9---|
a|--4-4-4-4-4-4-4-4-4-4-4-4-4-4-4---9-9-9---|
e|----------------------------------7-7-7---|   x2

0:49 (Guitar one)             (Guitar two)

e|-----------2-0~-|           e|---------|
b|-----2-0~-------|           b|---------|
g|--1-------------|           g|---------|
d|---2------------|           d|--2~-----|
a|----------------|           a|--2~-----|
e|----------------| x2        e|--0~-----| x2

0:55 (Both Guitars):

e|------------------------------------------|
b|------------------------------------------|
g|--6-6-6-6-6-6-6-6-6-6-6-6-6-6-6-----------|
d|--6-6-6-6-6-6-6-6-6-6-6-6-6-6-6---9-9-9---|
a|--4-4-4-4-4-4-4-4-4-4-4-4-4-4-4---9-9-9---|
e|----------------------------------7-7-7---|   x2

1:00 (Guitar one)             (Guitar two)

e|-----------2-0~-|           e|---------|
b|-----2-0~-------|           b|---------|
g|--1-------------|           g|---------|
d|---2------------|           d|--2~-----|
a|----------------|           a|--2~-----|
e|----------------| x2        e|--0~-----| x2

Chorus 1:05 (Both Guitars):

e|---------------------------|
b|---------------------------|
g|--6-6-6-6-6-6-6------------|
d|--6-6-6-6-6-6-6--9-9-9-9-9-|
a|--4-4-4-4-4-4-4--9-9-9-9-9-|
e|-----------------7-7-7-7-7-| x2

then...(Both Guitars):

e|----------------------------------------|
b|----------------------------------------|
g|--7-7-7-7-7---------------9--------9----|
d|--7-7-7-7-7--7-7-7-7-7--9-9-9--9-9-9-9--|
a|--5-5-5-5-5--7-7-7-7-7--9-7-9--9-9-7-9--|
e|-------------5-5-5-5-5--7---7--7-7---7--|

Verse 1:16 (Both Guitars)

e|------------------------------------------|
b|------------------------------------------|
g|--6-6-6-6-6-6-6-6-6-6-6-6-6-6-6-----------|
d|--6-6-6-6-6-6-6-6-6-6-6-6-6-6-6---9-9-9---|
a|--4-4-4-4-4-4-4-4-4-4-4-4-4-4-4---9-9-9---|
e|----------------------------------7-7-7---|   x2


1:22 (Guitar one)             (Guitar two)

e|-----------2-0~-|           e|---------|
b|-----2-0~-------|           b|---------|
g|--1-------------|           g|---------|
d|---2------------|           d|--2~-----|
a|----------------|           a|--2~-----|
e|----------------| x2        e|--0~-----| x2

1:27 (Both Guitars):

e|------------------------------------------|
b|------------------------------------------|
g|--6-6-6-6-6-6-6-6-6-6-6-6-6-6-6-----------|
d|--6-6-6-6-6-6-6-6-6-6-6-6-6-6-6---9-9-9---|
a|--4-4-4-4-4-4-4-4-4-4-4-4-4-4-4---9-9-9---|
e|----------------------------------7-7-7---|   x2

1:32 (Guitar one)             (Guitar two)

e|-----------2-0~-|           e|---------|
b|-----2-0~-------|           b|---------|
g|--1-------------|           g|---------|
d|---2------------|           d|--2~-----|
a|----------------|           a|--2~-----|
e|----------------| x2        e|--0~-----| x2

Chorus 1:38 (Both Guitars):

e|---------------------------|
b|---------------------------|
g|--6-6-6-6-6-6-6------------|
d|--6-6-6-6-6-6-6--9-9-9-9-9-|
a|--4-4-4-4-4-4-4--9-9-9-9-9-|
e|-----------------7-7-7-7-7-| x2

then...(Both Guitars):

e|----------------------------------------|
b|----------------------------------------|
g|--7-7-7-7-7---------------9--------9----|
d|--7-7-7-7-7--7-7-7-7-7--9-9-9--9-9-9-9--|
a|--5-5-5-5-5--7-7-7-7-7--9-7-9--9-9-7-9--|
e|-------------5-5-5-5-5--7---7--7-7---7--|

Chorus again (Both Guitars):

e|---------------------------|
b|---------------------------|
g|--6-6-6-6-6-6-6------------|
d|--6-6-6-6-6-6-6--9-9-9-9-9-|
a|--4-4-4-4-4-4-4--9-9-9-9-9-|
e|-----------------7-7-7-7-7-| x2

then...(Both Guitars):

e|----------------------------------------|
b|----------------------------------------|
g|--7-7-7-7-7---------------9--------9----|
d|--7-7-7-7-7--7-7-7-7-7--9-9-9--9-9-9-9--|
a|--5-5-5-5-5--7-7-7-7-7--9-7-9--9-9-7-9--|
e|-------------5-5-5-5-5--7---7--7-7---7--|

Bridge 2:00 (Guitar two)

e|-------------------------------------|
b|-------------------------------------|
g|--9-9-9-9-9-9-9-9-9-9-9-9-9-9-9-9-9--|
d|--9-9-9-9-9-9-9-9-9-9-9-9-9-9-9-9-9--|
a|--7-7-7-7-7-7-7-7-7-7-7-7-7-7-7-7-7--|
e|-------------------------------------|

(^^ Repeat this until the chorus begins, this part is also palm muted)

Guitar one joins in at 2:05 with...

e|-----------2-0~-|        
b|-----2-0~-------|          
g|--1-------------|           
d|---2------------|          
a|----------------|          
e|----------------| x4

Last Chorus 2:16 (Both Guitars):

e|---------------------------|
b|---------------------------|
g|--6-6-6-6-6-6-6------------|
d|--6-6-6-6-6-6-6--9-9-9-9-9-|
a|--4-4-4-4-4-4-4--9-9-9-9-9-|
e|-----------------7-7-7-7-7-| x2

then...(Both Guitars):

e|----------------------------------------|
b|----------------------------------------|
g|--7-7-7-7-7---------------9--------9----|
d|--7-7-7-7-7--7-7-7-7-7--9-9-9--9-9-9-9--|
a|--5-5-5-5-5--7-7-7-7-7--9-7-9--9-9-7-9--|
e|-------------5-5-5-5-5--7---7--7-7---7--|

Outro 2:27 (Both Guitars):

e|-------------------------------------------------|
b|-------------------------------------------------|
g|------7--------7-------------------4-4-4-4-4-----|
d|--7-7-7-7--7-7-7-7--5-5-5-5-5-5-5--4-4-4-4-4--2~-|
a|--7-7-5-7--7-7-5-7--5-5-5-5-5-5-5--2-2-2-2-2--2~-|
e|--5-5---5--5-5---5--3-3-3-3-3-3-3-------------0~-|

This is how i think they play it ^^
must be a few mistakes but what the hell :)
please rate :)
Tap to rate this tab
 
# A B C D E F G H I J K L M N O P Q R S T U V W X Y Z