Song name
# A B C D E F G H I J K L M N O P Q R S T U V W X Y Z

Buzzcocks - Esp chords

Highlighted       Show chord diagrams
-----------------------------------------------------------------------------
			     ESP - Buzzcocks
-----------------------------------------------------------------------------
Tabbed by: LeakyFlask
Email: bjorn.millom@gmail.com

Tuning: Standard


Let's start off with the main riff:

e|--0-0-2-0-2-3-3-2-0-2p0---|
B|------------------------2-|
G|--------------------------|
D|--------------------------|
A|--------------------------|
E|--------------------------|

Alternate fingering:

e|-------------------------|
B|--5-5-7-5-7-8-8-7-5-7p5--|
G|-----------------------6-|
D|-------------------------|
A|-------------------------|
E|-------------------------|

Just make sure you feel comfortable playing this, if you play lead
it's the only thing you'll be playing for the entire song.


Now for the chords:


Intro and chorus:


A
Do you believe in ESP?

G#
I do and I'm trying to get through to you

G         F#
If you're picking up off me

D                  E
Then you know just what to do - think!



(That chord progression is repeated during all the choruses, well, the only
bits with vocals really.)


Verses/Instrumental parts:


A     D     E


Ending on: C   G



The song fades out with the verse progression.



The rhythm guitar part isn't really heard all that well in the mix,
but use barre chords and trebly distortion. (Gotta love those HH amps!)


************************************

| /   slide up
| \   slide down
| h   hammer-on
| p   pull-off
| ~   vibrato
| +   harmonic
| x   Mute note
| b   Bend
| pb  Pre-bend
| br  Bend release
| pbr Pre-bend release
| brb Bend release bend

************************************
Tap to rate this tab
 
# A B C D E F G H I J K L M N O P Q R S T U V W X Y Z