Song name
# A B C D E F G H I J K L M N O P Q R S T U V W X Y Z

Buzzcocks - What Do I Get tab

-------------------------------------------------------------------------------
			     WHAT DO I GET? - Buzzcocks
-------------------------------------------------------------------------------
Tabbed by: Johnny Kennedy

Verse
e-------------|
B-------------|
G-------------|
D--5----------| (x2)
A--3-3-5------|
E----1-3------|

Chorus
e-------------|
B-------------|
G-------------|
D------5------| (x2)
A--6-5-3------|
E--4-3--------|

Bridge
e-------------|
B-------------|
G-------------|
D--------5-7--| (x2)
A--3-5-3-3-5--|
E--1-3-1------|

Solo
e------------------|
B------------------|
G------------------|
D------------------| (x2)
A--33333333555553--|
E------------------|

e------------------|
B------------------|
G------------------|
D------------------| (x2)
A--3553-65-3553----|
E------------------|

Outro
e------------------|
B------------------|
G------------------|
D--7-----5---------| (x9)
A--5-3-5-3---------|
E----1-3-----------|

e------------------|
B------------------|
G------------------|
D--7-----4-5-------|
A--5-3-5-2-3-------|
E----1-3-----------|


Verse
Chorus
Verse
Chorus
Bridge
Chorus
Solo
Bridge
Chorus
Verse
Chorus
Outro
Tap to rate this tab
 
# A B C D E F G H I J K L M N O P Q R S T U V W X Y Z