Song name
# A B C D E F G H I J K L M N O P Q R S T U V W X Y Z

Buzzcocks - You Say You Dont Love Me tab

So very catchy, yet a fairly strange structure. 
And one of the best guitar solos ever - 
single string, quite simple but absolutely perfect!
Amazingly I've never seen a vaguely accurate version of this one before.

Capo 1 to match the original!

Chords
======

E       
Dmaj7   xx0222
Cmaj7   x32000
Em      022000
G       320003
Bm7     x24230
F#m     244222
Asus    x02230
A       x02220


Riff1
=====

E ----------------|----------------|
B ----------5-4-5-|----------------|
G ----------------|6---------------|
D ----------------|----------------|
A ----------------|----------------|
E ----------------|----------------|



Verse 1
=======

NC                E
You say you don't love me
     A                   A/Ab           E
Well that's alright with me 'cos I'm in   love with you
      A                 A/Ab             E
And I wouldn't want you doing things you   don't want to do
       A                Dbm           B
Oh you know I've always wanted you to be in love with me
       A               Dbm         B
And it took so long to realise the way things have to be
  D                   A                   Dbm     (Riff1)
I wanted to live in a dream that couldn't be real
        D                 A                          B
And I'm starting to under-stand now the way that you feel
    E              B
You say you don't
    E              B
You say you don't


Verse 2
=======
                  E
You say you don't love me
     A                   A/Ab           E
Well that's alright with me 'cos I have   got the time
   A                 A/Ab          E
To wait in case some day you maybe   change your mind
        A            Dbm               B
I've de-cided not to make the same mis-takes this time around
       A               Dbm                  B
As I'm tired of having heartaches I've been thinking and I've found
  D                       A                      Dbm     (Riff1)
I don't want to live in a dream I want something real
      D             A                          B
And I think I under-stand now the way that you feel
    E             B
You say you don't
    E             B
You say you don't 
    E             B
You say you don't


Inst / solo
===========
   
  E                                 A                A/Ab
E ----------------|----------------|----------------|----------------|
B 5----------7----|9----------5----|2-----------4-5-|------------2-4-|
G ----------------|----------------|----------------|4---------------|
D ----------------|----------------|----------------|----------------|
A ----------------|----------------|----------------|----------------|
E ----------------|----------------|----------------|----------------|

  E                                 A                A/Ab
E ----------------|----------------|----------------|----------------|
B 5----------7----|9----------5----|2-----------4-5-|------------2-4-|
G ----------------|----------------|----------------|4---------------|
D ----------------|----------------|----------------|----------------|
A ----------------|----------------|----------------|----------------|
E ----------------|----------------|----------------|----------------|

  E                                 B
E ----------------|----------------|----------------|----------------|
B 5----------7----|9-----9-10-9-10-|12--------------|----------------|
G ----------------|----------------|----------------|----------------|
D ----------------|----------------|----------------|----------------|
A ----------------|----------------|----------------|----------------|
E ----------------|----------------|----------------|----------------|


    E              B
You say you don't
    E              B
You say you don't


Verse 3
=======

                  E
You say you don't love me
     A                   A/Ab          E 
Well that's alright with me I'm not in   love with you
  A               A/Ab             E
I just want us to do the things we   both want to do
            A                Dbm            B
Though I've got this special feeling I'd be wrong to call it love
        A              Dbm               B
For the word entails a few things that I would be well rid of
     D                    A                  Dbm  (Riff1)
I've no need to live in a dream it's finally real
      D                  A                    B
And I hope you now under-stand this feeling I feel
    E             B
You say you don't
    E             B
You say you don't
    E             E
You say you don't love me
                  D
You say you don't love me
                  Gbm  B
You say you don't love me
E
Mmm




-----------------------------------------

I hope I've done it justice!

Kevin O'Brien
Watford
England
February 2014

watfordkev@gmail.com
Tap to rate this tab
# A B C D E F G H I J K L M N O P Q R S T U V W X Y Z