Song name
# A B C D E F G H I J K L M N O P Q R S T U V W X Y Z

Buzzoven - Unwilling To Explain tab

Buzzov·en
Unwilling To Explain
Originally off of the Unwilling To Explain EP and again on Sore

Song is in C# tuning (low to high C# F# B E G# C#)

Key
x\ Pick scrape

Intro                             Let ring...
|--------------------------------------------|
|--------------------------------------------|
|--------------------------------------------|
|4---------4---------4---------4-------------|
|2--3------2--3------2--3------2--3----------|
|---1-x\------1---------1-x\------1----------|

Verses
|----------------|
|----------------|
|----------------|
|----------------|
|----------------|
|4-----4-----4---|
|2-0-0-2-0-0-2-0-|
PM . .   . .   .

The whole verse riff is this same bar repeated. The chorus is pretty much the intro.

Chorus
   *             *           *            *
|---------------------------------------------------|
|---------------------------------------------------|
|---------------------------------------------------|
|4------------4------------4------------4-----------|
|2-3----------2-3----------2-3----------2-3---------|
|--1-1-2-1-2----1-1-2-1-2----1-1-2-1-2----1-1-2-1-2-|

* Whenever this section comes up I like to let the A-string ring while doing the single 
notes at the same time. Sounds pretty accurate to me.

|---------------------------------------------------|
|---------------------------------------------------|
|---------------------------------------------------|
|4----4----4----4-----------------------------------|
|2-3--2-3--2-3--23----------------------------------|
|--1----1----1---1----------------------------------|

And that's it. Congrats! Hope to be uploading more Buzzov·en tabs in the near future. 
See you then.
Tap to rate this tab
# A B C D E F G H I J K L M N O P Q R S T U V W X Y Z