Song name
# A B C D E F G H I J K L M N O P Q R S T U V W X Y Z

Bwitched - Get Happy tab

Get Happy - B*witched - Transcribed by dave lamb
==========-----------===========================
*PLEASE NOTE - LEGAL NOTICE
*The above files are my own work. I am NOT claiming to have written either the music or the lyrics to these songs, 
*These files simply represent my interpretation of the music. I have transcribed them by listening to the Sony music
*recording. You may only use these files for private study, scholarship, or research. If you can prove that these files
*constitue an offence, with regards to copyright law in the United Kingdom, then please email dave@b-witched.net
*to rectify the situation


Verse + chorus Chords
----------------------

Everybody gather round..... Don't you know what we have found?

---------------------------------------------------------------
---------------------------------------------------------------
-6-----6-6------7-7------------4-----------4--4---------2-2----
-6-----6-6------7-7------------4-----------4--4---------2-2----
-4-----4-4------5-5------------2-----------2--2---------0-0----
---------------------------------------------------------------
C#    C# C#     D D            B           B  B         A A


etc.. (same pattern for each verse + the chorus)



Bridge chords
--------------
We got the feeling of saturday night so come on let's here you say...

----------------------------------------------------------------------
----------------------------------------------------------------------
-4----------------------6-----------------7--------------------9------
-4----------------------6-----------------7--------------------9------
-2----------------------4-----------------5--------------------7------
----------------------------------------------------------------------
 B                      C#                D                    E

these two pretty much cover the whole song. ta da!!

Tap to rate this tab
# A B C D E F G H I J K L M N O P Q R S T U V W X Y Z