Song name
# A B C D E F G H I J K L M N O P Q R S T U V W X Y Z

By The End Of Tonight - Tigers tab

By The End Of Tonight - Tigers
http://bytheendoftonight.com/
http://en.wikipedia.org/wiki/By_the_End_of_Tonight

Tariq Khan
semanticsofsong@gmail.com

Drop D tuning (DADGBe)

In honor of their reunion show last month, I've been listening to them a lot. Love this band.

guitar 1

e|---------------------------------------------------------------|
B|---------------------------------------------------------------|
G|---------------------------------------------------------------| repeat however many times
D|---------------------------------------------------------------|
A|---------------------------------------------------------------|
D|000000000-(32x total)-555555555-(16x)-77777777-(16x)-----------|

guitar 2: natural harmonics

e|--------------------------------------------|
B|-7*--------7*--------7*--------7*-----------|
G|--------------------------5*----------------|
D|----5*--5*----5*--5*----5*--5*----5*--5*----| repeat for a while
A|------5*--------5*------------------5*------|
D|--------------------------------------------|

guitar 1: this riff is played throughout, first clean and then distorted.

e|-------------------------------------------------------------------|
B|-------------------------------------------------------------------|
G|-------------------------------------------------------------------|
D|0-0-2-4-0-0-2-4-0-0-2-4-0-0-2-4-0-4-0-2-0-4-0-2-0-5-0-2-4-2-0-2-0--|
A|0-------0-------0-------0---------4-------4-------5-------2--------|
D|0-------0-------0-------0---------4-------4-------5-------2--------|

guitar 2

e|-----------------------|lightly palm muted at first, then slightly distorted
B|--7-9-7-9\6-7\2-0------|and no palm mute. listen for how many times to play each note.
G|-0-0-0-0-0-0-0-0-------|after this goes into distortion, guitar one comes back  
D|-----------------------|in. listen for it, you'll know what I mean.
A|-----------------------|
D|-----------------------|

guitar 2:

e|---------------------------------------------|
B|---------------------------------------------|
G|-7-9-11------------14-16-14-16-14-16-14-16---|
D|-x-x-x--(16x each)---------------------------| i'm not sure what the other guitar plays here,
A|-5-7-9---------------------------------------| but its some variation of chords that are
D|---------------------------------------------| throughout the song plus an A5.

super reverb tremolo picked riff:

e|------------------------------|
B|------------------------------|
G|-7-9-11-9-7-14-11-9-14b16-----|
D|---------------------------0--| tremolo pick while bending, that last chord rings out to
A|---------------------------0--| end song.
D|---------------------------0--|

I'm sure there's some other guitar stuff going on after that, but its hard to make 
out amidst all the electronics.
Tap to rate this tab
 
# A B C D E F G H I J K L M N O P Q R S T U V W X Y Z