Song name
# A B C D E F G H I J K L M N O P Q R S T U V W X Y Z

By The Tree - You Are My Desire tab

You are my desire
By the tree----> that's the whole name
It's a very pretty song! Enjoy and God Bless!

Tuning: Standard (Capo 1st Fret)

Intro:
   G  D/F# Em  C9
e|-3---3---3---3-------------------------------------------------|
B|-3---3---3---3-------------------------------------------------|
G|-0---2---0---0-------------------------------------------------|
D|-0---0---2---2-------------------------------------------------|
A|-2---0---2---3-------------------------------------------------|
E|-3---2---0-----------------------------------------------------| 

OR

(Capo 6th Fret)

   D           G
e|-------0-----------0-------------------------------------------|
B|---3-----3-----3-----3-----------------------------------------|
G|-2---2-----2-2---2-----0---------------------------------------|
D|---------------------------------------------------------------|
A|---------------------------------------------------------------|
E|---------------------------------------------------------------| 

Verse 1:
   Em D/F# G   Em D/F# G   Em D/F# C9
e|-3---3---3---3---3---3---3---3---3-----------------------------|
B|-3---3---3---3---3---3---3---3---3-----------------------------|
G|-0---2---0---0---2---0---0---2---0-----------------------------|
D|-2---0---0---2---0---0---2---0---2-----------------------------|
A|-2---0---2---2---0---2---2---0---3-----------------------------|
E|-0---2---3---0---2---3---0---2---------------------------------| 

OR

   Bm     Asus     D           Bm     Asus     D
e|-------2-------0-------0-----------3-------0-------0-----------|
B|---3-------3-------3-----3-----3-------3-------3-----3---------|
G|-----2-------0-------2-----2-----2-------0-------2-----2-------|
D|-----------------0---------------------------0-----------------|
A|-2-------0-------------------2-------0-------------------------|
E|---------------------------------------------------------------| 

   Bm     Asus     G              D/G
e|-------2-------0---3-----2-------2-----------------------------|
B|---3-------3---------3-----3-----3-----------------------------|
G|-----2-------0---------0-----0---0-----------------------------|
D|-------------------------------0-0-----------------------------|
A|-2-------0-----------------------0-----------------------------|
E|-----------------3---------------3-----------------------------| 

Chorus:
   G  D/F# Em  C9  G  D/F# Em  C9
e|-3---3---3---3---3---3---3---3---------------------------------|
B|-3---3---3---3---3---3---3---3---------------------------------|
G|-0---2---0---0---0---2---0---0---------------------------------|
D|-0---0---2---2---0---0---2---2---------------------------------|
A|-2---0---2---3---2---0---2---3---------------------------------|
E|-3---2---0-------3---2---0-------------------------------------| 

OR

   D           G         D             G
e|-------0-----------0-----------0-----------0-------------------|
B|---3-----3-----3-----3-----3-----3-----3-----3-----------------|
G|-2---2-----2-2---2-----0-2---2-----2-2---2-----0---------------|
D|---------------------------------------------------------------|
A|---------------------------------------------------------------|
E|---------------------------------------------------------------| 

Verse 2:
   Em D/F# G   Em D/F# G   Em D/F# C9
e|-3---3---3---3---3---3---3---3---3-----------------------------|
B|-3---3---3---3---3---3---3---3---3-----------------------------|
G|-0---2---0---0---2---0---0---2---0-----------------------------|
D|-2---0---0---2---0---0---2---0---2-----------------------------|
A|-2---0---2---2---0---2---2---0---3-----------------------------|
E|-0---2---3---0---2---3---0---2---------------------------------| 

OR

   Bm         Asus         D           D
e|-------2-----------0-----------0-----------0-------------------|
B|---3-----3-----3-----3-----3-----3-----3-----3-----------------|
G|-----2-----2-----0-----0-----2-----2-----2-----2---------------|
D|-------------------------0-----------0-------------------------|
A|-2-----------0-------------------------------------------------|
E|---------------------------------------------------------------| 

   Bm         Asus         D           D
e|-------2-----------0-----------0-----------0-------------------|
B|---3-----3-----3-----3-----3-----3-----3-----3-----------------|
G|-----2-----2-----0-----0-----2-----2-----2-----2---------------|
D|-------------------------0-----------0-------------------------|
A|-2-----------0-------------------------------------------------|
E|---------------------------------------------------------------| 

   Bm         Asus         G              D/G
e|-------2-----------0-------3-----2-------2---------------------|
B|---3-----3-----3-----3-------3-----3-----3---------------------|
G|-----2-----2-----0-----0-------0-----0---0---------------------|
D|---------------------------------------0-0---------------------|
A|-2-----------0---------------------------0---------------------|
E|-------------------------3---------------3---------------------| 

Chorus

Bridge:
  Am7  Em  C9 Am7  Em  C9 Am7  Em  C9 Am7  Em Dsus D  Dsus D
e|-3---3---3---3---3---3---3---3---3---3---3---3---2---3---2-----|
B|-1---3---3---1---3---3---1---3---3---1---3---3---3---3---3-----|
G|-0---0---0---0---0---0---0---0---0---0---0---2---2---2---2-----|
D|-2---2---2---2---2---2---2---2---2---2---2---0---0---0---0-----|
A|-0---2---3---0---2---3---0---2---3---0---2---------------------|
E|-----0-----------0-----------0-----------0---------------------| 

OR

   Em  Bm  G  D/G  Em  Bm  G  D/G
e|-3---2---3---2---3---2---3---2---------------------------------|
B|-3---3---3---3---3---3---3---3---------------------------------|
G|-0---2---0---0---0---2---0---0---------------------------------|
D|-2---4---0---0---2---4---0---0---------------------------------|
A|-2---2---2---0---2---2---2---0---------------------------------|
E|-0-------3---3---0-------3---3---------------------------------| 

   Em  Bm  G  D/G  Em  Bm Asus A7 Asus A7
e|-3---2---3---2---3---2---0---0---0---0-------------------------|
B|-3---3---3---3---3---3---3---2---3---2-------------------------|
G|-0---2---0---0---0---2---0---0---0---0-------------------------|
D|-2---4---0---0---2---4---2---2---2---2-------------------------|
A|-2---2---2---0---2---2---0---0---0---0-------------------------|
E|-0-------3---3---0---------------------------------------------| 

Chorus 3x

Outro:
   G
e|-3-------------------------------------------------------------|
B|-3-------------------------------------------------------------|
G|-0-------------------------------------------------------------|
D|-0-------------------------------------------------------------|
A|-2-------------------------------------------------------------|
E|-3-------------------------------------------------------------| 

OR

   G               D
e|-3-----2-----0---0---------------------------------------------|
B|---3-----3-----3-3---------------------------------------------|
G|-----0-----0-----2---------------------------------------------|
D|-----------------0---------------------------------------------|
A|---------------------------------------------------------------|
E|---------------------------------------------------------------| 

| /  slide up
| \  slide down
| h  hammer-on
| p  pull-off
| ~  vibrato
| +  harmonic
| x  Mute note


When I'm broken, You're the missing piece
When I'm empty, You are my drink
When I'm tired, You are my strength

You are my desire
No one else will do
Only You can satisfy
No one Lord but You

Surround me this is what I pray
That Your presence will guide me through each day
By Your mercy Lord, in me, have Your way

You are my Desire
No one else will do
Nothing else can satisfy
No one Lord but You

You've given me a passion to follow You
To worship You Lord in spirit, in truth
I have found the warmth of Your embrace
Lost in the shadows of Your grace
Tap to rate this tab
# A B C D E F G H I J K L M N O P Q R S T U V W X Y Z