Song name
# A B C D E F G H I J K L M N O P Q R S T U V W X Y Z

Byrds - So You Want To Be A Rock N Roll Star tab

These are based off of the tabs from RICKL1@IX.NETCOM.COM
He or She had the chords right for the song and the notes right for the intros, but not 
right order.

Here is the intro and the intro solo type thing. The chords for the song can be seen at 
tabs.

This is taken from the original 7" recording.

Intro:
E |----------------------------|
B |----------------------------|
G |----------------2-----------|
D |-------0--------------------|
A |----------0--2--------------|
E |-2--3-----------------------|


E |----------------------------------------------------------|
B |-3--3--3--2--2--0-0--------------------------------------|
G |----------------------2--2-4--0--0------------------------|
D |------------------------------------4--4--5--5-7---------|
A |----------------------------------------------------------|
E |----------------------------------------------------------|
Tap to rate this tab
 
# A B C D E F G H I J K L M N O P Q R S T U V W X Y Z