Song name
# A B C D E F G H I J K L M N O P Q R S T U V W X Y Z

Byrds - All I Really Want To Do tab

##################################################################################
# This file is the author's own work and represents their interpretation of the  #
# song. You may only use this file for private study, scholarship, or research.  #
##################################################################################

The Byrds - All I Really Want To Do (single version)

12 string

intro
riff 1
2x
 A
-----------0--------------0-----|
---2---3----------2---3-----2---|
--------------------------------|
------------------------------2-|
-0---0---0---0--0---0---0-------|
--------------------------------|

verses
   D       A       E7     A
-----2-------0---------------------|
---3---3---2---2-----3-------2-----|
---2-----2-2-----2-1---1--2----2---|
---0-------2-------2------2--------|
-----------0-------2------0------2-|
-------------------0---------------|


chorus
A     D
all i really
      A  F#m Bm
wanna do oh  oh
   E11      D            A(w/riff 2)
is  baby be friends with you

riff 2
 A     Asus4    A     Asus4
----------0-------------0-----|
-2-2---3----3-0-2-2---3---3-0-|
-2---2-4--------2---2-4-------|
-2-----2--------2-----2-------|
-0-----0--------0-----0-------|
------------------------------|


outro
E11         D            A(W/riff 1)
is  baby be friends with you

                D                A        Asus4  A
---------------------------------------------------|
---------------------------------2-2-2-2-2h3-3---2-|
-----------2---7--7-7-7--7-6--4---------------2--2-|
-2-2-2-2-4---------------------------------------2-|
-------------------------------------------------0-|
---------------------------------------------------|
Tap to rate this tab
 
# A B C D E F G H I J K L M N O P Q R S T U V W X Y Z