Song name
# A B C D E F G H I J K L M N O P Q R S T U V W X Y Z

Byrds - Turn Turn Turn tab

Intro:

            Bm A             Bm A
E-----------2--0-------------2--0-|
B-3-h5-5----3--2--3h5-5-5----3--2-|
G-----------4--2-------------4--2-|
D-----------4--2-------------4--2-|
A-----------x--x-------------x--x-|
E-----------x--x-------------x--x-|

                                 Bm A
E--------0------2------3--------------|
B-3-----------------------------------|  Guitar 1 2x
G-------------------------------------|
D-------------------------------------|
A-------------------------------------|
E-------------------------------------|

E--------0---0--2---2--3---3--2---2--0-|
B-3-3-3----3------3------3------3------| Guitar 2 2x
G--------------------------------------|
D--------------------------------------|
A--------------------------------------|
E--------------------------------------|

Chorus:
NC         D       G     F#m   A
To ev'- ry-thing,  Turn, Turn, Turn.
A           D         G     F#m   A
There is  a sea-son,  Turn, Turn, Turn.
A     G    F#m        Em      A        D       D D4 D D2 D
And a time to ev'- ry pur-pose  un-der heav-en.
E----------------------------------------------2-3--2-0-----|
B---------------------------------------------------------3-|
G-------------------------------------------------------2---|  &
D-----------------------------------------------------------|
A-----------------------------------------------------------|
E-----------------------------------------------------------|

  D              A                     D
1)A time  to  be born.     A time  to  die.
2)A time to build up.  A time to break down.
3)A time  of  thought.     A time  of  hate.

  D          A                  D
1)A time  to plant.  A time  to reap.
2)A time  to dance.  A time  to mourn.
3)A time  of war.    A time  of peace.

  D          A                 D
1)A time  to kill.  A time  to heal.
  A                       D
2)A time  to cast  a-way  stones.  #
3)A time  that you  may em-brace.  #

  D          G    F#m     Em   A      D       D D4 D D2 D
1)A time  to la - ugh.  A ti - ime to we - ep.  (&)
2)A time  to ga - a - ther stones  to-geth-er.  (&)
3)A time  to re - frain  fro - om  em-brac-ing. (&)

Back to chorus after each verse above. Go to lead solo
after 3rd time. Note the slight variation in timing and
chord position for verses 2&3.

Lead solo: The rythmn guitar carries a lot of the solo.

  NC        D    G    F#m  A    NC     D    G    F#m  A
E------2--3-5--5-3--3-2--2-0------2--3-5--5-3--3-2--2-0-|
B----3--------------------------3-----------------------|
G-2-----------------------------------------------------|
D-------------------------------------------------------|
A-------------------------------------------------------|
E-------------------------------------------------------|

   A G     F#m       Em A    D D2   D   D2 D
E--5-7---7-5---5-----------------------------|
B----------------7---5--5-5--7p5--5-7-7--5-3-|
G--------------------------------------------|
D--------------------------------------------|
A--------------------------------------------|
E--------------------------------------------|

  D         A               D                 A               D
E-------------------12--------------------------------12---12-14-|
B-15-15--15-14---15------14-15---15-15-----15-14---15------------|
G----------------------------------------------------------------|
D----------------------------------------------------------------|
A----------------------------------------------------------------|
E----------------------------------------------------------------|

  D          A               D
E-14--12-------------12---------|
B---------15-14---15------14-15-|
G-------------------------------|
D-------------------------------|
A-------------------------------|
E-------------------------------|

  D         G      F#m  Em   A    A  D   D2   D   D2 D
E-14-12-----10--10-9--9-7--7-5-------------------------|
B--------15-----------------------5--7-7p5--5h7-7--5-3-|
G------------------------------------------------------|
D------------------------------------------------------|
A------------------------------------------------------|
E------------------------------------------------------|

NC        D      G     F#m   A
To ev'-ry-thing  Turn, Turn, Turn.
A           D        G     F#m   A
There is  a sea-son  Turn, Turn, Turn.
A     G    F#m       Em       A        D       D D4 D D2 D
And a time to ev'-ry pur-pose   un-der hea-ven.   (&)
  D          A                 D
4)A time  to gain.  A time  to lose.
  A time  to rend.  A time  to sew.
  A time for love.  A time for hate.
  D          G     F#m    Em         A       D    D D4 D D2 D
  A time  of pea - ce,  I swear it's not too late.  (&)

Outro:
                                Bm  A
E----------0------2------3-----------|
B---3--------------------------------|     Guitar 1
G------------------------------------|
D------------------------------------|
A------------------------------------|     1x both guitars.
E------------------------------------|

E---------------------------------------|
B-----------------3-3----3-3----3-----3-|  Guitar 2
G---------------2-----------------------|
D---------------------------------------|
A---------------------------------------|
E---------------------------------------|

                                Bm  A
E----------0------2------3-----------|
B---3--------------------------------|     Guitar 1
G------------------------------------|
D------------------------------------|
A------------------------------------|     Repeat and fade.
E------------------------------------|

E---------------------------------------|
B---3-3----3-3----3-3----3-3----3-----3-|  Guitar 2
G-2------2------2------2------2-----2---|
D---------------------------------------|
A---------------------------------------|
E---------------------------------------|

Chord diagrams:
D      G      F#m    A      Dsus4(D4) Dsus2(D2) Em     Bm
x00232 355433 244222 002220 x00223    x00230    022000 xx4432

E,B,G,D,A,E, = guitar strings, NC = no chord, p = pull off,
h = hammer on. Use guitar 2 as the main guitar in the intro and
the outro if you don't have someone else for guitar 1.
Tabbed from: The Byrds Turn! Turn! Turn! CD
Tap to rate this tab
# A B C D E F G H I J K L M N O P Q R S T U V W X Y Z