Song name
# A B C D E F G H I J K L M N O P Q R S T U V W X Y Z

Byrds - My Back Pages tab

                      The Byrds - My Back Pages - SOLO

Didn't see a tab up for the solo anywhere so I thought I would make my own.
You can play the notes differently for the second section starting on the G
string playing on 11 and going from there but this is how I play it. 

In standard tuning(EADGBe) moderately slow tempo, easy to pluck to.

ENJOY!


Start 1:48 - 2:11

e|-12-12-12-11-9-9-7-7--7-7-9-9-9-7-7-|
B|------------------------------------|
G|------------------------------------|
D|------------------------------------|
A|------------------------------------|
E|------------------------------------|


e|-12-12-12----------------------------12-7-7-|
B|----------7-7-7/9-9-9--9-9/10-10-9-7--------|
G|--------------------------------------------|
D|--------------------------------------------|
A|--------------------------------------------|
E|--------------------------------------------|


e|-12-12---12-12-11-9-7-7--7-9-7---9-7---9-7-|
B|-------7-----------------------9-----9-----|
G|-------------------------------------------|
D|-------------------------------------------|
A|-------------------------------------------|
E|-------------------------------------------|




Tablature by 'Rockin' Rob
Tap to rate this tab
# A B C D E F G H I J K L M N O P Q R S T U V W X Y Z