Song name
# A B C D E F G H I J K L M N O P Q R S T U V W X Y Z

Byrds - I Was So Much Older Then tab

|-12-12-12-12-11-11-9-7-7-9-9-9-7-7----|
|--------------------------------------|
|--------------------------------------|
|--------------------------------------|
|--------------------------------------|
|--------------------------------------|

|-12-12--------------------------------------|
|--------7-7-7-7/9-9-9-10-9-7-7-12-12-9-7----|
|--------------------------------------------|
|--------------------------------------------|
|--------------------------------------------|
|--------------------------------------------|

|-12-12----12-12-11-9-7-7-9-7---9-7-----9-7-----|
|--------7---------------------9------9---------|
|-----------------------------------------------|
|-----------------------------------------------|
|-----------------------------------------------|
|-----------------------------------------------|

enjoy!!
Tap to rate this tab
# A B C D E F G H I J K L M N O P Q R S T U V W X Y Z