Guitaretab - guitar tabs
Song name
# A B C D E F G H I J K L M N O P Q R S T U V W X Y Z

Byz - Why Do We Always Fight tab

-------------------1----------3----------0---|
------0-1--------1----------3-----1----------|
----2----------2----------0-----------0------|
--2----------3----------0-----------2--------|
0-------------------------------3------------|
-----------1----------3----------------------|

--------------5---------1---------3-----------0-----|
------0-1-3-5---------1---------3-----------1-------|
----2-------------2-----------0-----------0---------|
--2-----------------3-------0-----------2-----------|
0-------------------------------------3-------------|
----------------1---------3-------------------------|

Chords used:

Am F G C


Am               F                  G
  Why can't only things be like they were
               C                               Am
  Itís not the same when I no long can speak to her
           F                  G
  I may be changed but so have she
               C                               Am
Itís like we're prisoners and we just canít get free
           F                 G
  I see her eyes the same old eyes
             F                                    Am
But then she breaks me down and makes our feelings die

[ Tab from: http://www.guitaretab.com/b/byz/115043.html ]
It's pretty basic, but it should give you some idea how to play it.
Am F G C goes throughout the song.
I suggest you improvise a little. Also, a capo wouldn't hurt either...

Lyrics:

Why can't only things be like they were
Itís not the same when I no long can speak to her
I may be changed but so have she
Itís like we're prisoners and we just canít get free
I see her eyes the same old eyes
But then she breaks me down and makes our feelings die

I got a life on my own
I have to be on my own sometimes
I have to stand on my own two feetís and I know I treat her good
But why do we always fight
I canít look at you
I canít be with you tonight
And I know that this ain't right
Because I love you so but I have to go alone

Why can't only I for one just be
Itís not the same when I no long can speak to him
I may be changed but so have he
Itís like we've locked us up and thrown away the key
I see your smile the same old smile
But then he takes me down and make our feelings die

I got a life on my own
I have to be on my own sometimes
I have to stand on my own two feetís cause I know I treat him good

But why do we always fight
I canít look at you
I canít be with you tonight
And I know that this ain't right
Because I love you so but I have to go alone


tabbed by: tannutorn24

If you have a better version or any suggestions, please let me know...
Related for Why Do We Always Fight tab