Song name
# A B C D E F G H I J K L M N O P Q R S T U V W X Y Z

Byz - October Love tab

BYZ - October Love Guitar tab

Visit their official website to if you like em=)

http://www.byz.se/

Tabbed by Gunnvall

This is a great song made by BYZ=)
No one had made a tab for it so I made it myself..
Hope ya like it;)

Use Standard tuning

Chords used:
    G        D       Em      Bm
---33-3-----22-2-----00-0----2-----|
---00-0-----33-3-----00-0----2-3---|
---00-0-----22-2-----00-0----2-4---|
---00-0-----00-0-----22-2----2-4---|
---22-2--------------22-2----2-----|
---33-3--------------00-0----2-----|

Intro

      Em        D       G      Bm
E|----0---------2-------3------2-----|
B|----0---------3-------3------2-3---|
G|----0---------2-------0------2-4---|
D|----2---------0-------0------2-4---|
A|----2-----------------2------2-----|
E|----0-----------------3------2-----|

E|-------------------------------|
B|-------------------------------|
G|-0\16-14-11-12-7-4~------------|
D|-------------------------------|
A|-------------------------------|
E|-------------------------------|

Verse

E|----------------------------------------------------------------|
B|----------------------------------------------------------------|
G|----------------------------------------------------------------|
D|----------------7-7-7-7-7-7-7-7-----------------4-4-4-4-4-4-4-4-|
A|2-2-2-2-2-2-2-2-5-5-5-5-5-5-5-5-5-5-5-5-5-5-5-5-2-2-2-2-2-2-2-2-|
E|0-0-0-0-0-0-0-0-----------------3-3-3-3-3-3-3-3-----------------|


    Em        D       G      Bm
----0---------2-------3------2-----|
----0---------3-------3------2-3---|
----0---------2-------0------2-4---|
----2---------0-------0------2-4---|
----2-----------------2------2-----|
----0-----------------3------2-----|

     Em     D     G    Bm
E|-----0-----2-----3---------|
B|---0-----3-----0-------3---|
G|---------------------------|
D|-2-----0-------------4-----|
A|-------------------2-------|
E|-------------3-------------|

Chorus

E|------------------------------------------------------------------------|
B|------------------------------------------------------------------------|
G|------------------------------------------------------------------------|
D|------------------------------------------------------------------------|
A|2-2-2-2-2-2-2-2-9-9-9-9-9-9-9-9-10-10-10-10-10-10-10-10-3-3-3-3-2-2-2-2-|
E|0-0-0-0-0-0-0-0-7-7-7-7-7-7-7-7--8--8--8--8--8--8--8--8-5-5-5-5-4-4-4-4-|


E|--------------------|
B|--------------------|
G|------7777----------|
D|--5555----55555555--|
A|--------------------|
E|--------------------|

Verse

E|----------------------------------------------------------------|
B|----------------------------------------------------------------|
G|----------------------------------------------------------------|
D|----------------7-7-7-7-7-7-7-7-----------------4-4-4-4-4-4-4-4-|
A|2-2-2-2-2-2-2-2-5-5-5-5-5-5-5-5-5-5-5-5-5-5-5-5-2-2-2-2-2-2-2-2-|
E|0-0-0-0-0-0-0-0-----------------3-3-3-3-3-3-3-3-----------------|


    Em        D       G      Bm
----0---------2-------3------2-----|
----0---------3-------3------2-3---|
----0---------2-------0------2-4---|
----2---------0-------0------2-4---|
----2-----------------2------2-----|
----0-----------------3------2-----|


     Em     D     G    Bm
E|-----0-----2-----3---------|
B|---0-----3-----0-------3---|
G|---------------------------|
D|-2-----0-------------4-----|
A|-------------------2-------|
E|-------------3-------------|


Chorus


E|------------------------------------------------------------------------|
B|------------------------------------------------------------------------|
G|------------------------------------------------------------------------|
D|------------------------------------------------------------------------|
A|2-2-2-2-2-2-2-2-9-9-9-9-9-9-9-9-10-10-10-10-10-10-10-10-3-3-3-3-2-2-2-2-|
E|0-0-0-0-0-0-0-0-7-7-7-7-7-7-7-7--8--8--8--8--8--8--8--8-5-5-5-5-4-4-4-4-|


Only drums and lyrics


E|--------------------|
B|--------------------|
G|------7777----------|
D|--5555----55555555--|
A|--------------------|
E|--------------------|

E|------------------------------------------------------------------------|
B|------------------------------------------------------------------------|
G|------------------------------------------------------------------------|
D|------------------------------------------------------------------------|
A|2-2-2-2-2-2-2-2-9-9-9-9-9-9-9-9-10-10-10-10-10-10-10-10-3-3-3-3-2-2-2-2-|
E|0-0-0-0-0-0-0-0-7-7-7-7-7-7-7-7--8--8--8--8--8--8--8--8-5-5-5-5-4-4-4-4-|


Outro

E|-----------------------------------------------------------------------|
B|-----------------------------------------------------------------------|
G|-----------------------------------------------------------------------|
D|-9-9-9-9-9-9-9-9-7-7-9-9-11-11-12-12-9-9-9-9-9-9-9-9-7-7-7-7-7-7-7-7---|
A|-7-7-7-7-7-7-7-7-5-5-7-7-9--9--10-10-7-7-7-7-7-7-7-7-5-5-5-5-5-5-5-5---|
E|-----------------------------------------------------------------------|
Tap to rate this tab
# A B C D E F G H I J K L M N O P Q R S T U V W X Y Z