Song name
# A B C D E F G H I J K L M N O P Q R S T U V W X Y Z

Byzantine - Redneck War tab

#----------------------------------PLEASE NOTE---------------------------------#
#This file is the author's own work and represents their interpretation of the #
#song. You may only use this file for private study, scholarship, or research. #
#------------------------------------------------------------------------------#

REDNECK WAR
As recorded by Byzantine
(From the 2005 Album ... AND THEY SHALL TAKE UP SERPENTS)

Transcribed by Tony Rohrbough
	

Words by Chris Ojeda Music by Byzantine
Arranged by Byzantine

Gtr I (C G C F A D) - 'Untitled'
Gtr II (C G C F A D) - 'Untitled'
Gtr III (C G C F A D) - 'Untitled'

   Intro
    Q.=145
   12/8
    Gtr I
                               PM--|                              PM--|
     E  E  E  E  E  E  E  E  E E E E    E  E  E  E  E  E  E  E  E E E E
||-----------------------------------|----------------------------------|
||o----------------------------------|----------------------------------|
||--11-11-11-11-11-11-11-11-11-------|-12-12-12-12-12-12-12-12-12-------|
||-----------------------------------|----------------------------------|
||o--9--9--9--9--9--9--9--9--9-------|-10-10-10-10-10-10-10-10-10-------|
||-----------------------------0-0-0-|----------------------------0-0-0-|


                         PM--------------------|
  E E E E E E Q  Q  Q    E E E E E E E E E E E E
|----------------------|--------------------------||
|----------------------|-------------------------o||
|-4-4-4-4-4-4-7--4-----|--------------------------||
|-------------------5--|--------------------------||
|-2-2-2-2-2-2-5--2-----|-------------------------o||
|-------------------5--|-0-0-0-0-0-0-0-0-0-0-0-0--||


    Gtr I
                               PM--|                              PM--|
     E  E  E  E  E  E  E  E  E E E E    E  E  E  E  E  E  E  E  E E E E
||-----------------------------------|-----------------------------------|
||o----------------------------------|-----------------------------------|
||--11-11-11-11-11-11-11-11-11-------|-12-12-12-12-12-12-12-12-12--------|
||-----------------------------------|-----------------------------------|
||o--9--9--9--9--9--9--9--9--9-------|-10-10-10-10-10-10-10-10-10--------|
||-----------------------------0-0-0-|----------------------------0-0-0--|
|
|   Gtr II
|                              PM--|                              PM--|
|    E  E  E  E  E  E  E  E  E E E E    E  E  E  E  E  E  E  E  E E E E
||-----------------------------------|-----------------------------------|
||o----------------------------------|-----------------------------------|
||---7--7--7--7--7--7--7--7--7-------|--5--5--5--5--5--5--5--5--5--------|
||-----------------------------------|-----------------------------------|
||o--5--5--5--5--5--5--5--5--5-------|--3--3--3--3--3--3--3--3--3--------|
||-----------------------------0-0-0-|----------------------------0-0-0--|


                              1.
                               PM--------------------|
   E  E  E  E  E  E Q  Q  Q    E E E E E E E E E E E E
|----------------------------|--------------------------||
|----------------------------|-------------------------o||
|--4--4--4--4--4--4-7--4-----|--------------------------||
|-------------------------5--|--------------------------||
|--2--2--2--2--2--2-5--2-----|-------------------------o||
|-------------------------5--|-0-0-0-0-0-0-0-0-0-0-0-0--||
|
|                              PM--------------------|
|  E  E  E  E  E  E Q  Q  Q    E E E E E E E E E E E E
|----------------------------|--------------------------||
|----------------------------|-------------------------o||
|-12-12-12-12-12-12-7--4-----|--------------------------||
|-------------------------5--|--------------------------||
|-10-10-10-10-10-10-5--2-----|-------------------------o||
|-------------------------5--|-0-0-0-0-0-0-0-0-0-0-0-0--||


   Verse
    2.
                      PM--|     PM  PM--|   PM  PM--|
    E E E E E E E E E E E E   E E E E E E E E E E E E
||--------------------------|--------------------------|
||o-------------------------|--------------------------|
||--9-9-9-9-9-9-9-9-9-------|-8---8-------8---8--------|
||--7-7-7-7-7-7-7-7-7-------|-7---7-------7---7--------|
||o-5-5-5-5-5-5-5-5-5-------|-5---5-------5---5--------|
||--------------------0-0-0-|---0---0-0-0---0---0-0-0--|


                            PM--------------------|
  E E E E E E E E E E E E   E E E E E E E E E E E E  4x
|-------------------------|--------------------------||
|-------------------------|-------------------------o||
|-8-8-8-8-8-8-8-8-8-8-8-8-|--------------------------||
|-8-8-8-8-8-8-8-8-8-8-8-8-|--------------------------||
|-6-6-6-6-6-6-6-6-6-6-6-6-|-------------------------o||
|-------------------------|-5-6-0-3-0-0-5-6-0-3-0-0--||


   Chorus
    E E E E E E E E E E E E   E E E E E E E E E E E E   4x
||--------------------------|---------------------------||
||o-------------------------|--------------------------o||
||--------------------------|---------------------------||
||--5-5-5-5-5-5-------------|-5-5-5-5-5-5-7-7-7-7-7-7---||
||o-3-3-3-3-3-3-3-3-3-3-3-3-|-3-3-3-3-3-3-5-5-5-5-5-5--o||
||--0-0-0-0-0-0-4-4-4-4-4-4-|-3-3-3-3-3-3-5-5-5-5-5-5---||


 Intro
                             PM--|                              PM--|
   E  E  E  E  E  E  E  E  E E E E    E  E  E  E  E  E  E  E  E E E E
|----------------------------------|----------------------------------|
|----------------------------------|----------------------------------|
|-11-11-11-11-11-11-11-11-11-------|-12-12-12-12-12-12-12-12-12-------|
|----------------------------------|----------------------------------|
|--9--9--9--9--9--9--9--9--9-------|-10-10-10-10-10-10-10-10-10-------|
|----------------------------0-0-0-|----------------------------0-0-0-|


                         PM--------------------|
  E E E E E E Q  Q  Q    E E E E E E E E E E E E
|----------------------|-------------------------|
|----------------------|-------------------------|
|-4-4-4-4-4-4-7--4-----|-------------------------|
|-------------------5--|-------------------------|
|-2-2-2-2-2-2-5--2-----|-------------------------|
|-------------------5--|-0-0-0-0-0-0-0-0-0-0-0-0-|


  Gtr I
                             PM--|
   E  E  E  E  E  E  E  E  E E E E
|----------------------------------|
|----------------------------------|
|-11-11-11-11-11-11-11-11-11-------|
|----------------------------------|
|--9--9--9--9--9--9--9--9--9-------|
|----------------------------0-0-0-|
|
| Gtr II
|                            PM--|
|  E  E  E  E  E  E  E  E  E E E E
|----------------------------------|
|----------------------------------|
|--7--7--7--7--7--7--7--7--7-------|
|----------------------------------|
|--5--5--5--5--5--5--5--5--5-------|
|----------------------------0-0-0-|


                             PM--|
   E  E  E  E  E  E  E  E  E E E E    E  E  E  E  E  E Q  Q  Q
|----------------------------------|-----------------------------|
|----------------------------------|-----------------------------|
|-12-12-12-12-12-12-12-12-12-------|-12-12-12-12-12-12-7--4------|
|----------------------------------|-------------------------5---|
|-10-10-10-10-10-10-10-10-10-------|-10-10-10-10-10-10-5--2------|
|----------------------------0-0-0-|-------------------------5---|
|
|                            PM--|
|  E  E  E  E  E  E  E  E  E E E E    E  E  E  E  E  E Q  Q  Q
|----------------------------------|-----------------------------|
|----------------------------------|-----------------------------|
|--5--5--5--5--5--5--5--5--5-------|--4--4--4--4--4--4-7--4------|
|----------------------------------|-------------------------5---|
|--3--3--3--3--3--3--3--3--3-------|--2--2--2--2--2--2-5--2------|
|----------------------------0-0-0-|-------------------------5---|


   Verse
                      PM--|     PM  PM--|   PM  PM--|
    E E E E E E E E E E E E   E E E E E E E E E E E E
||--------------------------|--------------------------|
||o-------------------------|--------------------------|
||--9-9-9-9-9-9-9-9-9-------|-8---8-------8---8--------|
||--7-7-7-7-7-7-7-7-7-------|-7---7-------7---7--------|
||o-5-5-5-5-5-5-5-5-5-------|-5---5-------5---5--------|
||--------------------0-0-0-|---0---0-0-0---0---0-0-0--|


                            PM--------------------|
  E E E E E E E E E E E E   E E E E E E E E E E E E  4x
|-------------------------|--------------------------||
|-------------------------|-------------------------o||
|-8-8-8-8-8-8-8-8-8-8-8-8-|--------------------------||
|-8-8-8-8-8-8-8-8-8-8-8-8-|--------------------------||
|-6-6-6-6-6-6-6-6-6-6-6-6-|-------------------------o||
|-------------------------|-5-6-0-3-0-0-5-6-0-3-0-0--||


   Chorus
    E E E E E E E E E E E E   E E E E E E E E E E E E   3x
||--------------------------|---------------------------||
||o-------------------------|--------------------------o||
||--------------------------|---------------------------||
||--5-5-5-5-5-5-------------|-5-5-5-5-5-5-7-7-7-7-7-7---||
||o-3-3-3-3-3-3-3-3-3-3-3-3-|-3-3-3-3-3-3-5-5-5-5-5-5--o||
||--0-0-0-0-0-0-4-4-4-4-4-4-|-3-3-3-3-3-3-5-5-5-5-5-5---||


                                        PM|
  E E E E E E E E E E E E   E E E E E E E E E Q.
|-------------------------|------------------------|
|-------------------------|------------------------|
|-------------------------|------------------------|
|-5-5-5-5-5-5-------------|-5-5-5-5-5-5------------|
|-3-3-3-3-3-3-3-3-3-3-3-3-|-3-3-3-3-3-3-3-5---5----|
|-0-0-0-0-0-0-4-4-4-4-4-4-|-3-3-3-3-3-3-3-5---5----|


 Solo - Tony
  Gtr I
  S S E E E E E S S E E E E E   S S E E E E E S S E E E E E
|---------------2h3p2-------2-|---------------3h4p3-------3-|
|-2h3p2-------2-------5-4-5---|-3h4p3-------3-------6-5-6---|
|-------5-4-5-----------------|-------6-5-6-----------------|
|-----------------------------|-----------------------------|
|-----------------------------|-----------------------------|
|-----------------------------|-----------------------------|
|
| Gtr II
|         PM----------------|           PM----------------|
| Q     E E E E E   E E E E E   Q     E E E E E   E E E E E
|-----------------------------|-----------------------------|
|-----------------------------|-----------------------------|
|-----------------------------|-----------------------------|
|-----------------------------|-----------------------------|
|-4-----4---------------------|-5-----5---------------------|
|-4-----4-0-0-0-0---0-0-0-0-0-|-5-----5-0-0-0-0---0-0-0-0-0-|


   E  E E E E E  E E E E E E   Q.     +Q    E H.
|-10------7------------------|-------------------------------------|
|----10-----7---10-----7-----|-------------------------------------|
|-------9-----7----9-----7---|-------------------------------------|
|--------------------9-----7-|-6b7----(6)--------------------------|
|----------------------------|--------------8-5--------------------|
|----------------------------|-------------------------------------|
|
|         PM--|                        PM---|
|  Q    E E E E  Q   Q   Q     Q    E  E  E E E    E  E  E  E E
|----------------------------|-------------------------------------|
|----------------------------|-------------------------------------|
|----------------------------|-------------------------------------|
|--4----4--------7---4-------|-7----7---------7--/10-10-10-\7-7----|
|--2----2--------5---2---5---|-5----5---------5---/8--8--8-\5-5----|
|---------0-0-0----------5---|---------0--0-0----------------------|


  E E E E E E S S E E Q   E   E E E  E E E S S E E  Q   E
|-----5-9p5-----------------|-----6-10p6------------------|
|---7-------7---------------|---8--------8----------------|
|-6-----------6h7p6---6-----|-7------------7h8p7----------|
|-------------------9-------|--------------------8--------|
|---------------------------|----------------------10-----|
|---------------------------|-----------------------------|
|
|       PM----------------|          PM-----------------|
| Q   E E E E E   E E E E E   Q   E  E E E E   E E  E E E
|---------------------------|-----------------------------|
|---------------------------|-----------------------------|
|---------------------------|-----------------------------|
|---------------------------|-----------------------------|
|-4---4---------------------|-5---5-----------------------|
|-4---4-0-0-0-0---0-0-0-0-0-|-5---5--0-0-0-0---0-0--0-0-0-|


                                                      |----3----|
   E E E  E  E  E  E  E  E  E  E  E    H.             E  E      E  E +Q.
|-10p7---14p10----19p14----14p10----|--------------------------------------------|
|------7-------12-------15-------12-|-13-----------------------------------------|
|-----------------------------------|-12b14r=====================================|
|-----------------------------------|----------------10h12p====10-\9-(9)---------|
|-----------------------------------|--------------------------------------------|
|-----------------------------------|--------------------------------------------|
|
|         PM---|                               PM--|
|  Q   E  E  E  E  Q     Q     Q       Q     E E E E  E      E     E  E   E E
|-----------------------------------|--------------------------------------------|
|-----------------------------------|--------------------------------------------|
|-----------------------------------|--------------------------------------------|
|--4---4-----------7-----4----------|--7-----7--------7----/10----10-10--\7-7----|
|--2---2-----------5-----2-----5----|--5-----5--------5-----/8-----8--8--\5-5----|
|---------0--0--0--------------5----|----------0-0-0-----------------------------|


   E  E E E E  E S  S E  E Q   E    E  E  E  E  E  E  S  S  E  E  Q   E
|---------9----------------9-----|----------10-------------------10-----|
|-------9---9----9h10p9----9-----|-------10----10----10h11p10----10-----|
|----11-------11--------11-------|----12----------12----------12--------|
|-11-----------------------------|-12-----------------------------------|
|--------------------------------|--------------------------------------|
|--------------------------------|--------------------------------------|
|
|         PM-------------------|             PM-----------------------|
|  Q    E E E  E E    E  E E E E    Q     E  E  E  E  E     E  E  E E E
|--------------------------------|--------------------------------------|
|--------------------------------|--------------------------------------|
|--------------------------------|--------------------------------------|
|--------------------------------|--------------------------------------|
|--4----4------------------------|--5-----5-----------------------------|
|--4----4-0-0--0-0----0--0-0-0-0-|--5-----5--0--0--0--0-----0--0--0-0-0-|


   E  E  E  E  E  E  E  E  E  E  E  E    H.             H.
|-------14-17-------------19-22-------|------------------------------------|
|----12-------15-------17-------20----|-20b22r=========19------------------|
|-11-------------14-16-------------19-|------------------------------------|
|-------------------------------------|------------------------------------|
|-------------------------------------|------------------------------------|
|-------------------------------------|------------------------------------|
|
|           PM---|                               PM--|
|  Q     E  E  E  E  Q     Q     Q       Q     E E E E  E    E  E  E  E E
|-------------------------------------|------------------------------------|
|-------------------------------------|------------------------------------|
|-------------------------------------|------------------------------------|
|--4-----4-----------7-----4----------|--7-----7--------7--/10-10-10-\7-7--|
|--2-----2-----------5-----2-----5----|--5-----5--------5---/8--8--8-\5-5--|
|-----------0--0--0--------------5----|----------0-0-0---------------------|


                                                           ~~~
   E  E  E  E  E  E  E  E  E  E  E  E    E  E  E  E  E  E  H.
|-------------------------------------|---------------------------------|
|-------------13-13-16-16-------------|-------------20-20-19------------|
|-------11-11-------------14-14-------|-------17-17---------------------|
|-13-13-------------------------16-16-|-19-19---------------------------|
|-------------------------------------|---------------------------------|
|-------------------------------------|---------------------------------|
|
|           PM---------------------|              PM------------------|
|  Q     E  E  E  E  E  E  E  E  E  E    Q     E  E  E  E  E  E E E E E
|-------------------------------------|---------------------------------|
|-------------------------------------|---------------------------------|
|-------------------------------------|---------------------------------|
|-------------------------------------|---------------------------------|
|--4-----4----------------------------|--5-----5------------------------|
|--4-----4--0--0--0--0--0--0--0--0--0-|--5-----5--0--0--0--0--0-0-0-0-0-|


   E   E  E  E   E  E  E   E  E  E   E  E
|-14/-15-15-15\-14-14-14/-15-15-15\-14-14--|
|-15/-16-16-16\-15-15-15/-16-16-16\-15-15--|
|------------------------------------------|
|------------------------------------------|
|------------------------------------------|
|------------------------------------------|
|
|            PM----|
|  Q      E  E   E  E  Q      Q      Q
|------------------------------------------|
|------------------------------------------|
|------------------------------------------|
|--4------4------------7------4------------|
|--2------2------------5------2------5-----|
|------------0---0--0----------------5-----|


  Gtr I
   E  E  E  E  E  E  E  E  E  Q.
|----------------------------------|
|----10-------13-------16----16----|
|-11----11-14----14-17----17-------|
|----------------------------------|
|----------------------------------|
|----------------------------------|
|
| Gtr II
|  E  E  E  E  E  E  E  E  E  Q.
|----------------------------------|
|----------------------------------|
|-----5--------8-------11----11----|
|--7-----7-10----10-13----13-------|
|----------------------------------|
|----------------------------------|
|
| Gtr III
|  E  E  E  E  E  E  E  E  E  Q.
|----------------------------------|
|----------------------------------|
|----------------------------------|
|-----4--------7-------10----10----|
|--6-----6--9-----9-12----12-------|
|----------------------------------|


 Interlude
  PM--|   PM------|   PM--------|   PM------|   PM---
  E E E E E E E E E E E E   E E E E E E E E E E E E
|-------------------------|-------------------------|
|-------------------------|-------------------------|
|-------------------------|-------------------------|
|-------------------------|-------------------------|
|-------0-----------5-----|-------0-----------5-----|
|-0-2-3---3-2-0-2-3---3-2-|-0-2-3---0-6-0-2-3---3-2-|


 -----|   PM------|   PM--------|   PM------|
  E E E E E E E E E E E E   E E E E E E E E E Q.
|-------------------------|-------------------------|
|-------------------------|-------------------------|
|-------------------------|-------------------------|
|-------------------------|-------------------------|
|-------0-----------5-----|-------0-----------4-----|
|-0-2-3---3-2-0-2-3---3-2-|-0-2-3---0-6-0-2-3-------|


  Gtr I
  PM---|   PM--------|   PM----------|   PM--------|   PM---
  E  E E E E E  E  E E E E E    E  E E E E E  E  E E E E E
|----------------------------|-----------------------------|
|----------------------------|-----------------------------|
|----------------------------|-----------------------------|
|----------------------------|-----------------------------|
|--------0-------------5-----|---------0-------------5-----|
|-0--2-3---3-2--0--2-3---3-2-|--0--2-3---0-6--0--2-3---3-2-|
|
| Gtr II
| Q.     E Q    Q.     E Q      Q.     E E E  Q.     E Q
|----------------------------|-----------------------------|
|----------------------------|-----------------------------|
|----------------------------|-----------------------------|
|----------------------7-----|-----------------------7-----|
|--------7-------------5-----|---------7---6---------5-----|
|--------7-------------------|---------7---6---------------|


 -------|   PM--------|   PM----------|   PM-------|
   E  E E E E E  E  E E E E E    E  E E E E E  E E E Q.
|-----------------------------|----------------------------|
|-----------------------------|----------------------------|
|-----------------------------|----------------------------|
|-----------------------------|----------------------------|
|---------0-------------5-----|---------0------------4-----|
|--0--2-3---3-2--0--2-3---3-2-|--0--2-3---0-6--0-2-3-------|
|
|  Q.     E Q    Q.     E Q      Q.     E E E  E E E Q.
|-----------------------------|----------------------------|
|-----------------------------|----------------------------|
|-----------------------------|----------------------------|
|-----------------------7-----|----------------------------|
|---------7-------------5-----|---------7---6--------4-----|
|---------7-------------------|---------7---6--0-2-3-------|


    PM--|   PM------|   PM--------|   PM------|   PM---
    E E E E E E E E E E E E   E E E E E E E E E E E E
||--------------------------|-------------------------|
||o-------------------------|-------------------------|
||--------------------------|-------------------------|
||--------------------------|-------------------------|
||o-------0-----------5-----|-------0-----------5-----|
||--0-2-3---3-2-0-2-3---3-2-|-0-2-3---0-6-0-2-3---3-2-|


 -----|   PM------|   PM--------|   PM------|
  E E E E E E E E E E E E   E E E E E E E E E Q.
|-------------------------|--------------------------||
|-------------------------|-------------------------o||
|-------------------------|--------------------------||
|-------------------------|--------------------------||
|-------0-----------5-----|-------0-----------4-----o||
|-0-2-3---3-2-0-2-3---3-2-|-0-2-3---0-6-0-2-3--------||


 Bridge
                      PM--------|
  H.      Q.   Q.     E E E E E E Q  Q  Q
|-------------------|----------------------|
|-------------------|----------------------|
|-------------------|----------------------|
|-------------------|----------------------|
|-3-------2----6----|-------------3--2--6--|
|-3-------2----6----|-5-5-5-5-5-5-3--2--6--|


                      PM--------|
  H.      Q.   Q.     E E E E E E Q  Q  Q
|-------------------|------------------------|
|-------------------|------------------------|
|-------------------|------------------------|
|-------------------|------------------------|
|-5-------3----2----|-------------5--3--2----|
|-5-------3----2----|-6-6-6-6-6-6-5--3--2----|


                      PM--------|
  H.      Q.   Q.     E E E E E E Q  Q  Q
|-------------------|----------------------|
|-------------------|----------------------|
|-------------------|----------------------|
|-------------------|----------------------|
|-6-------5----3----|-------------6--5--3--|
|-6-------5----3----|-2-2-2-2-2-2-6--5--3--|


                      PM--------|
  H.      Q.   Q.     E E E E E E Q  Q  Q
|-------------------|------------------------|
|-------------------|------------------------|
|-------------------|------------------------|
|-------------------|------------------------|
|-2-------6----5----|-------------2--6--5----|
|-2-------6----5----|-3-3-3-3-3-3-2--6--5----|


    PM--|   PM------|   PM--------|   PM------|   PM---
    E E E E E E E E E E E E   E E E E E E E E E E E E
||--------------------------|-------------------------|
||o-------------------------|-------------------------|
||--------------------------|-------------------------|
||--------------------------|-------------------------|
||o-------0-----------5-----|-------0-----------5-----|
||--0-2-3---3-2-0-2-3---3-2-|-0-2-3---0-6-0-2-3---3-2-|


 -----|   PM------|   PM--------|   PM------|
  E E E E E E E E E E E E   E E E E E E E E E Q.
|-------------------------|--------------------------||
|-------------------------|-------------------------o||
|-------------------------|--------------------------||
|-------------------------|--------------------------||
|-------0-----------5-----|-------0-----------4-----o||
|-0-2-3---3-2-0-2-3---3-2-|-0-2-3---0-6-0-2-3--------||


                      PM--------|
  H.      Q.   Q.     E E E E E E Q  Q  Q
|-------------------|----------------------|
|-------------------|----------------------|
|-------------------|----------------------|
|-------------------|----------------------|
|-3-------2----6----|-------------3--2--6--|
|-3-------2----6----|-5-5-5-5-5-5-3--2--6--|


                      PM--------|
  H.      Q.   Q.     E E E E E E Q  Q  Q
|-------------------|------------------------|
|-------------------|------------------------|
|-------------------|------------------------|
|-------------------|------------------------|
|-5-------3----2----|-------------5--3--2----|
|-5-------3----2----|-6-6-6-6-6-6-5--3--2----|


                      PM--------|
  H.      Q.   Q.     E E E E E E Q  Q  Q
|-------------------|----------------------|
|-------------------|----------------------|
|-------------------|----------------------|
|-------------------|----------------------|
|-6-------5----3----|-------------6--5--3--|
|-6-------5----3----|-2-2-2-2-2-2-6--5--3--|


                      PM--------|
  H.      Q.   Q.     E E E E E E Q  Q  Q
|-------------------|------------------------|
|-------------------|------------------------|
|-------------------|------------------------|
|-------------------|------------------------|
|-2-------6----5----|-------------2--6--5----|
|-2-------6----5----|-3-3-3-3-3-3-2--6--5----|


  Gtr I
        PM---|       PM---|     PM  PM--|   PM  PM--|
  Q   E E  E E Q   E E  E E   E E E E E E E E E E E E
|---------------------------|-------------------------|
|---------------------------|-------------------------|
|-9---9--------9---9--------|-8---8-------8---8-------|
|-7---7--------7---7--------|-7---7-------7---7-------|
|-5---5--------5---5--------|-5---5-------5---5-------|
|-------0--0-0-------0--0-0-|---0---0-0-0---0---0-0-0-|
|
| Gtr II
|                               PM  PM--|   PM  PM--|
| Q.    Q.     Q.    Q.       E E E E E E E E E E E E
|---------------------------|-------------------------|
|---------------------------|-------------------------|
|---------------------------|-8---8-------8---8-------|
|---------------------------|-7---7-------7---7-------|
|---------------------------|-5---5-------5---5-------|
|---------------------------|---0---0-0-0---0---0-0-0-|


       PM---|       PM-----------------------------|
  Q  E E  E E Q   E E  E E   E E E E E E E E E E E E
|--------------------------|----------------------------|
|--------------------------|----------------------------|
|-8--8--------8---8--------|----------------------------|
|-8--8--------8---8--------|-5-6-3-5---3----------------|
|-6--6--------6---6--------|---------6---4-6-3-4--------|
|------0--0-0-------0--0-0-|---------------------5-3----|
|
|                            PM--------------------|
| Q  E Q.     Q.    Q.       E E E E E E E E E E E E
|--------------------------|----------------------------|
|--------------------------|----------------------------|
|--------------------------|----------------------------|
|-1------------------------|-5-6-3-5---3----------------|
|-1------------------------|---------6---4-6-3-4--------|
|-1------------------------|---------------------5-3----|


 Solo - OJ
  W.                       H.            H.
|------------------------|----------------------------|
|------------------------|----------------------------|
|-7----------------------|-5------------10------------|
|------------------------|----------------------------|
|-5----------------------|-3-------------8------------|
|------------------------|----------------------------|
|
|       PM--|      PM--|      PM  PM--|     PM  PM--|
| Q   E E E E Q  E E E E   E  E E E E E  E  E E E E E
|------------------------|----------------------------|
|------------------------|----------------------------|
|-9---9-------9--9-------|-8----8--------8----8-------|
|-7---7-------7--7-------|-7----7--------7----7-------|
|-5---5-------5--5-------|-5----5--------5----5-------|
|-------0-0-0------0-0-0-|----0---0-0-0-----0---0-0-0-|


                           PM--------------------|
  W.                       E E E E E E E E E E E E
|------------------------|----------------------------|
|------------------------|----------------------------|
|-8----------------------|----------------------------|
|------------------------|-5-6-3-5---3----------------|
|-6----------------------|---------6---4-6-3-4--------|
|------------------------|---------------------5-3----|
|
|       PM--|      PM----------------------------|
| Q   E E E E Q  E E E E   E E E E E E E E E E E E
|------------------------|----------------------------|
|------------------------|----------------------------|
|------------------------|----------------------------|
|-1---1-------1--1-------|-5-6-3-5---3----------------|
|-1---1-------1--1-------|---------6---4-6-3-4--------|
|-1---1-1-1-1-1--1-1-1-1-|---------------------5-3----|


  W.                       H.            Q    +Q     Q
|------------------------|-------------------------------|
|------------------------|-------------------------------|
|-7----------------------|-5------------10---(10)---12---|
|------------------------|-------------------------------|
|------------------------|-------------------------------|
|------------------------|-------------------------------|
|
|       PM--|      PM--|      PM  PM--|    PM     PM---|
| Q   E E E E Q  E E E E   E  E E E E E  E E   E  E  E E
|------------------------|-------------------------------|
|------------------------|-------------------------------|
|-9---9-------9--9-------|-8----8--------8-----8---------|
|-7---7-------7--7-------|-7----7--------7-----7---------|
|-5---5-------5--5-------|-5----5--------5-----5---------|
|-------0-0-0------0-0-0-|----0---0-0-0----0------0--0-0-|


  Q     Q      Q      H.             E  E  E  E  E  E  E  E  E  E  E  E
|---------------------------------|----------------------------------------|
|---------------------------------|----------------------------------------|
|-8b10--8b10---8b10---8-----------|----------------------------------------|
|---------------------------------|-12-13-10-12----10----------------------|
|---------------------------------|-------------13----11-13-10-11----------|
|---------------------------------|-------------------------------12-10----|
|
|            PM-----|       PM---------------------------------------|
| Q     E    E E    E Q   E E E E    E  E  E  E  E  E  E  E  E  E  E  E
|---------------------------------|----------------------------------------|
|---------------------------------|----------------------------------------|
|---------------------------------|----------------------------------------|
|-1-----1-------------1---1-------|--5--6--3--5-----3----------------------|
|-1-----1-------------1---1-------|--------------6-----4--6--3--4----------|
|-1-----1----1-1----1-1---1-1-1-1-|--------------------------------5--3----|


  E E E E  E  E E E E E  E  E   E E E E   E E  E  E  E  Q.
|-----------------------------|--------------------------------|
|-----------------------------|---------------10-------13------|
|-----------------------------|-------------7-------10---------|
|-0h3p0-5-/7\-5-0h5p0-7-/8\-7-|-0h7p0-8-/10------12------------|
|-----------------------------|--------------------------------|
|-----------------------------|--------------------------------|
|
|       PM----|       PM----|     PM  PM----|     PM    PM---|
| Q   E E  E  E Q   E E  E  E   E E E E   E E  E  E  E  E  E E
|-----------------------------|--------------------------------|
|-----------------------------|--------------------------------|
|-9---9---------9---9---------|-8---8----------8-----8---------|
|-7---7---------7---7---------|-7---7----------7-----7---------|
|-5---5---------5---5---------|-5---5----------5-----5---------|
|-------0--0--0-------0--0--0-|---0---0---0-0-----0-----0--0-0-|


            |---3---|
   q   q    e  E    E  Q      E  E  E  E    E  E  E  E  E  E  E  E  E  E  E E
|----------------------------------------|-------------------------------------|
|-13--11---10h11p==10--------10----------|-------------------------------------|
|---------------------12b14-----12p10----|-12-13-10-12----10-------------------|
|-------------------------------------12-|-------------13----11-13-10-11-------|
|----------------------------------------|-------------------------------10-8--|
|----------------------------------------|-------------------------------------|
|
|        PM------|               PM-----------------------------------------|
|  Q   E E  E    E     Q      E  E  E  E    E  E  E  E  E  E  E  E  E  E  E E
|----------------------------------------|-------------------------------------|
|----------------------------------------|-------------------------------------|
|----------------------------------------|-------------------------------------|
|--1---1---------------1------1----------|--5--6--3--5-----3-------------------|
|--1---1---------------1------1----------|--------------6-----4--6--3--4-------|
|--1---1-1--1----1-----1------1--1--1--1-|--------------------------------5-3--|


  E  E E  E E  E E  E E  E E  E   E E E  S   S   E E E E E  S   S   E E
|------8-12p8---------8-12p8----|-----7-11-/12\-11-7-----7-11-/12\-11-7-|
|---10--------10---10--------10-|---9------------------9----------------|
|-9--------------9--------------|-8------------------8------------------|
|-------------------------------|---------------------------------------|
|-------------------------------|---------------------------------------|
|-------------------------------|---------------------------------------|
|
|         PM--|          PM--|      PM   PM--------|   PM   PM--------|
| Q    E  E E  E Q    E  E E  E   E E E  E       E E E E E  E       E E
|-------------------------------|---------------------------------------|
|-------------------------------|---------------------------------------|
|-9----9---------9----9---------|-8---8--------------8---8--------------|
|-7----7---------7----7---------|-7---7--------------7---7--------------|
|-5----5---------5----5---------|-5---5--------------5---5--------------|
|---------0-0--0---------0-0--0-|---0----0-------0-0---0----0-------0-0-|


   E  E  E  E  E  E  E  E  E  E  E  E    E  E  E  E  E  E  E  E  E  E  E  E
|-18p13----------13-18p13----------13-|-15-16-13-15----13-------------15p13--|
|-------16----16----------16----16----|-------------16----14-16-13-14--------|
|----------15----------------15-------|--------------------------------------|
|-------------------------------------|--------------------------------------|
|-------------------------------------|--------------------------------------|
|-------------------------------------|--------------------------------------|
|
|           PM---|            PM-----------------------------------------|
|  Q     E  E  E  E  Q     E  E  E  E    E  E  E  E  E  E  E  E  E  E  E  E
|-------------------------------------|--------------------------------------|
|-------------------------------------|--------------------------------------|
|-------------------------------------|--------------------------------------|
|--1-----1-----------1-----1----------|--5--6--3--5-----3--------------------|
|--1-----1-----------1-----1----------|--------------6-----4--6--3--4--------|
|--1-----1--1--1--1--1-----1--1--1--1-|--------------------------------5--3--|


                    ~~~~
   H.              +H.              +H.           H.
|--------------------------------|-----------------------------|
|--------------------------------|-----------------------------|
|-17b19r==========(17)-----------|-(17)------------------------|
|--------------------------------|-----------------------------|
|--------------------------------|-----------------------------|
|--------------------------------|-----------------------------|
|
|  E    E E E E E   E  E E E E E     E  E E E E E E  E E E E E
|--------------------------------|-----------------------------|
|--------------------------------|-----------------------------|
|--------------------------------|-----------------------------|
|--5----5-5-5-5-5----------------|---5--5-5-5-5-5-7--7-7-7-7-7-|
|--3----3-3-3-3-3---3--3-3-3-3-3-|---3--3-3-3-3-3-5--5-5-5-5-5-|
|--0----0-0-0-0-0---4--4-4-4-4-4-|---3--3-3-3-3-3-5--5-5-5-5-5-|


   Chorus
    E E E E E E E E E E E E   E E E E E E E E E E E E
||--------------------------|---------------------------||
||o-------------------------|--------------------------o||
||--------------------------|---------------------------||
||--5-5-5-5-5-5-------------|-5-5-5-5-5-5-7-7-7-7-7-7---||
||o-3-3-3-3-3-3-3-3-3-3-3-3-|-3-3-3-3-3-3-5-5-5-5-5-5--o||
||--0-0-0-0-0-0-4-4-4-4-4-4-|-3-3-3-3-3-3-5-5-5-5-5-5---||


                                        PM|
  E E E E E E E E E E E E   E E E E E E E E E Q.
|-------------------------|------------------------|
|-------------------------|------------------------|
|-------------------------|------------------------|
|-5-5-5-5-5-5-------------|-5-5-5-5-5-5------------|
|-3-3-3-3-3-3-3-3-3-3-3-3-|-3-3-3-3-3-3-3-5---5----|
|-0-0-0-0-0-0-4-4-4-4-4-4-|-3-3-3-3-3-3-3-5---5----|


   Outro
    PM--|   PM------|   PM--------|   PM------|   PM---
    E E E E E E E E E E E E   E E E E E E E E E E E E
||--------------------------|-------------------------|
||o-------------------------|-------------------------|
||--------------------------|-------------------------|
||--------------------------|-------------------------|
||o-------0-----------5-----|-------0-----------5-----|
||--0-2-3---3-2-0-2-3---3-2-|-0-2-3---0-6-0-2-3---3-2-|


 -----|   PM------|   PM--------|   PM------|
  E E E E E E E E E E E E   E E E E E E E E E Q.
|-------------------------|--------------------------||
|-------------------------|-------------------------o||
|-------------------------|--------------------------||
|-------------------------|--------------------------||
|-------0-----------5-----|-------0-----------4-----o||
|-0-2-3---3-2-0-2-3---3-2-|-0-2-3---0-6-0-2-3--------||


    Gtr I
    E  E  E  E  E  E E  E  E  E  E  E   E  E  E  E E  E E  E  E  E  E  E
||------------------------------------|----------------------------------|
||o-----------------------------------|----------------------------------|
||---------------------------11-------|-------------------------11-------|
||----------11------------------------|---------11---10------------------|
||o-9-11-12----12-11-9-11-12----12-11-|-9-11-12----9----9-11-12----12-11-|
||------------------------------------|----------------------------------|
|
|   Gtr II
|   PM---|      PM--------|      PM----------|     PM--------|      PM----
|   E  E  E  E  E  E E  E  E  E  E  E   E  E  E  E E  E E  E  E  E  E  E
||------------------------------------|----------------------------------|
||o-----------------------------------|----------------------------------|
||------------------------------------|----------------------------------|
||------------------------------------|----------------------------------|
||o----------0----------------5-------|----------0---------------5-------|
||--0--2--3-----3--2-0--2--3-----3--2-|-0--2--3----0--6-0--2--3-----3--2-|


  E  E  E  E  E  E E  E  E  E  E  E   E  E  E  E E  E E  E  E   Q.
|-----------------------------------|----------------------------------||
|-----------------------------------|---------------------------------o||
|--------------------------11-------|-------------------------[10]-----||
|---------11------------------------|---------11---10------------------||
|-9-11-12----12-11-9-11-12----12-11-|-9-11-12----9----9-11-12---------o||
|-----------------------------------|----------------------------------||
|
|------|      PM--------|      PM----------|     PM--------|
| E  E  E  E  E  E E  E  E  E  E  E   E  E  E  E E  E E  E  E   Q.
|-----------------------------------|----------------------------------||
|-----------------------------------|---------------------------------o||
|-----------------------------------|----------------------------------||
|-----------------------------------|----------------------------------||
|----------0----------------5-------|----------0----------------4-----o||
|-0--2--3-----3--2-0--2--3-----3--2-|-0--2--3----0--6-0--2--3----------||


  E E E E E E E E E Q.
|-------------------------*|
|-------------------------*|
|-------------------------*|
|-----------3-5-6---------*|
|-----3-4-6---------------*|
|-3-5---------------------*|



Duration Legend
---------------
W - whole; H - half; Q - quarter; E - 8th; S - 16th; T - 32nd; X - 64th; a - acciaccatura
+ - note tied to previous; . - note dotted; .. - note double dotted
Uncapitalized letters represent notes that are staccato (1/2 duration)
Irregular groupings are notated above the duration line
Duration letters will always appear directly above the note/fret number it represents the
duration for.  Duration letters with no fret number below them represent rests.  Multi-
bar rests are notated in the form Wxn, where n is the number of bars to rest for.  Low
melody durations appear below the staff

Tablature Legend
----------------
 h   - hammer-on
 p   - pull-off
 b   - bend
 pb  - pre-bend
 r   - bend release (if no number after the r, then release immediately)
 /\  - slide into or out of (from/to "nowhere")
 s   - legato slide
 S   - shift slide
 - natural harmonic
[n]  - artificial harmonic
n(n) - tapped harmonic
 ~   - vibrato
 tr  - trill
 T   - tap
 TP  - trem. picking
 PM  - palm muting
\n/  - tremolo bar dip; n = amount to dip
 \n  - tremolo bar down
 n/  - tremolo bar up
/n\  - tremolo bar inverted dip
 =   - hold bend; also acts as connecting device for hammers/pulls
 <> - volume swell (louder/softer)
 x   - on rhythm slash represents muted slash
 o   - on rhythm slash represents single note slash

Misc Legend
-----------
 |  - bar
||  - double bar
||o - repeat start
o|| - repeat end
*|  - double bar (ending)
 :  - bar (freetime)
 $  - Segno
 &  - Coda
Tempo markers -  = BPM(8/16=s8/s16), where s8 = swing 8ths, s16 = swing 16ths

Tap to rate this tab
# A B C D E F G H I J K L M N O P Q R S T U V W X Y Z