Song name
# A B C D E F G H I J K L M N O P Q R S T U V W X Y Z

Byzantine - Jeramiad tab

Help us improve GuitareTab! Take a short survey!
VERSE
---------------------------------      ------------------------------|
---------------------------------      ------------------------------|
---------------------------------      ------------------------------|
---------------------------------      ------------------------------|
--3p1-3----------3p1-3--3--5--1--      8p6-8--------8p6-8--8--10--6--|
--3p1-3--000000--3p1-3--3--5--1--      8p6-8--0000--8p6-8--8--10--6--|
          pm         repeat 4                  pm     repeat 2
---------------------------------------------------------------------|
---------------------------------------------------------------------|
---------------------------------------------------------------------|
---------------------------------------------------------------------|
--3p1-3----------3p1-3--3--5--1--3p1-3----------3p1-3--3--5--0-------|
--3p1-3--000000--3p1-3--3--5--1--3p1-3--000000--3p1-3--3--5--0-------|
          pm                              pm
CHORUS
------------------------    ------------------------------|
------------------------    ------------------------------|
--9-----------9---------    ------------------------------|
--7-10--5--7--7-10--5--7    --8\6/8----------8\6/8--10\6--|
--5--8--3--5--5--8--3--5    ------------------------------|
-----8--3--5-----8--3--5    --8\6/8--000000--8\6/8--10\6--|
(8) (8)(8)(8)(8)(8)(8)(8)             pm           repeat 4
        repeat 2

----------------------------------------------------------|
----------------------------------------------------------|
----------------------------------------------------------|
----------------------------------------------------------|
----------------------------------------------------------|
--11111--1111111--0000000--11111--3333333--0000000--------|
                     ALL PM                       SOLO

--------------------------------------------------------------------|
-----0-----0-----0-----0-----0--------0-----0-----0-----0-----0-----|
-------3-----3-----3-----3-----3--------3-----3-----3-----3-----3---|
--1------1-----1-----1-----1-----1--0-----0-----0-----0-----0-----0-|
--------------------------------------------------------------------|
--------------------------------------------------------------------|
                        repeat 4


VERSE
---------------------------------      ------------------------------|
---------------------------------      ------------------------------|
---------------------------------      ------------------------------|
---------------------------------      ------------------------------|
--3p1-3----------3p1-3--3--5--1--      8p6-8--------8p6-8--8--10--6--|
--3p1-3--000000--3p1-3--3--5--1--      8p6-8--0000--8p6-8--8--10--6--|
          pm         repeat 4                  pm     repeat 2
---------------------------------------------------------------------|
---------------------------------------------------------------------|
---------------------------------------------------------------------|
---------------------------------------------------------------------|
--3p1-3----------3p1-3--3--5--1--3p1-3----------3p1-3--3--5--0-------|
--3p1-3--000000--3p1-3--3--5--1--3p1-3--000000--3p1-3--3--5--0-------|
          pm                              pm
CHORUS
------------------------    ------------------------------|
------------------------    ------------------------------|
--9-----------9---------    ------------------------------|
--7-10--5--7--7-10--5--7    --8\6/8----------8\6/8--10\6--|
--5--8--3--5--5--8--3--5    ------------------------------|
-----8--3--5-----8--3--5    --8\6/8--000000--8\6/8--10\6--|
(8) (8)(8)(8)(8)(8)(8)(8)             pm           repeat 4
        repeat 2

Verse
chorus
Solo
back to verse
chorus

this is the way i learned it so if u think it sucks then jus give me a comment
peace
Related for Jeramiad tab