Song name
# A B C D E F G H I J K L M N O P Q R S T U V W X Y Z

C2c - Down The Road Technical Parts tab

I LOVE this song, unfortunately there isnt a tab for the parts I was looking
for. So I have been learning by ear, it's a long and tedious process, but i
plan to tab out the whole song (if im able to). I'll keep updating the tab
as i go, but heres what i got after an hour or two.


please be gentle... its my first tab

legend:

b = bend
h = hammer/pull off
/ = slide to
~ = vibrate

0:17
E------------------------------------------------------------------------------------------------|
B-----------------------------------------------------8------------------------------------------|
G-----------3h0--------5/7---------------------5/8-10-------------------------------------------3|
D--5----3----------------------5~----5~-8-5------------------7-5------------3h5-5-3h5-5----------|
A--5---------------------------------------------------------------------------------------------|
E--3----------------------------------------------------------------------7/4--------------------|

0:26
E---------------------------------------------------------------------------------10h12h10h12h10-|
B----------------------------------------------------8--------------8b---------------------------|
G-----------3h0--------7h5h0------------------5/8-10------7-5------------------------------------|
D--5----3-----------------------------5~-8-5-----------------------------------------------------|
A--5---------------------------------------------------------------------------------------------|
E--3---------------------------------------------------------------------------------------------|
Tap to rate this tab
# A B C D E F G H I J K L M N O P Q R S T U V W X Y Z