Song name
# A B C D E F G H I J K L M N O P Q R S T U V W X Y Z

C418 - Danny tab

Danny by C418
Tabbed by: Fedoramcman

This is my first tab, so all the placement and arrangement of tabs may be weird,
also, I currently can't call this the accurate either (whether its the key or the
notes themselves)

Intro
E|--------------------------------------------------|
B|--------------------------------------------------|
G|--------------------------------------------------|
D|--5--7--9--10--5--7--9--10--12--10--9--10--12--5--|
A|--------------------------------------------------|
E|--------------------------------------------------|

Verse 1
E|------------------------------------------------------|
B|------------------------------------------------------|
G|------------------------------------------------------|
D|--5--7--9--10--5--7--9--10--12--10--9--12--5--5--7--9-|
A|------------------------------------------------------|
E|------------------------------------------------------|

E|----------------------------------------|
B|----------------------------------------|
G|----------------------------------------|
D|----------------------------------------|
A|-10--8--7--10--7--5--7--5--3--5--7--10--|
E|----------------------------------------|

Verse 1 (High Part)
E|-------------------------------------------------------------------|
B|--12--13--15--12--10--8--8--10--13p12--13p12--15--12--10--8--------|
G|-------------------------------------------------------------------|
D|-------------------------------------------------------------------|
A|-------------------------------------------------------------------|
E|-------------------------------------------------------------------|

E|---------17--15--10-----------------------------------15p17-----------|
B|--12--8--------------12--8--10--12--10--12p13p12p15p13-----8--10--12--|
G|----------------------------------------------------------------------|
D|----------------------------------------------------------------------|
A|----------------------------------------------------------------------|
E|----------------------------------------------------------------------|

Verse 2
E|-------------------------------------------------|
B|-------------------------------------------------|
G|-------------------------------------------------|
D|--9--7--5--3-------------------------------------|
A|--------------7--5--10--7--5--7--5--3--5--7--10--|
E|-------------------------------------------------|

I did my best, but I couldn't find the right notes for the rest of the song :P

Questions? Corrections? Contact me at fedoramcman@gmail.com
Tap to rate this tab
 
# A B C D E F G H I J K L M N O P Q R S T U V W X Y Z