Song name
# A B C D E F G H I J K L M N O P Q R S T U V W X Y Z

Caballo Dorado - Payaso Del Rodeo tab

Intro
e ----------10-----------10-----------10-10--------------------------|
B -10-12-10----10-12-10------10-12-10-------12-10--------------------|
G -------------------------------------------------------------------|
D -------------------------------------------------------------------|
A -------------------------------------------------------------------|
E -------------------------------------------------------------------|

e ----------10-10-----------------------------------------------------|
B -10-12-10-------12-10-12-10-13-13-12-10--10-12-10-13-13-12-10-12-10-|
G --------------------------------------------------------------------|
D --------------------------------------------------------------------|
A --------------------------------------------------------------------|
E --------------------------------------------------------------------|

e -------------------------------------------------------------------|
B -13-13-12-10--10-12-10-13-10-12-10---------------------------------|
G -----------------------------------11----9----------11-------------|
D --------------------------------------12---12----12----12----------|
A -------------------------------------------------------------------|
E -------------------------------------------------------------------|

e ----------10-10-------------10-10-----------------11-------11-------|
B -10-12-10-------12-10-12-10-------12-10--10-12-10----12-10----12-10-|
G --------------------------------------------------------------------|
D --------------------------------------------------------------------|
A --------------------------------------------------------------------|
E --------------------------------------------------------------------|

e -------------------------------------------------------------------|
B -12-10-13-13-12-10---10-12-10-13-12-10-13-12-10-13-12-10-13-12-10--|
G -------------------------------------------------------------------|
D -------------------------------------------------------------------|
A -------------------------------------------------------------------|
E -------------------------------------------------------------------|

e ----------------------------------|
B -10-12-10-13-10-12-10-------------|
G ----------------------11----9-----|
D -------------------------12---12--|
A ----------------------------------|
E ----------------------------------|
Tap to rate this tab
# A B C D E F G H I J K L M N O P Q R S T U V W X Y Z