Guitaretab - guitar tabs
Song name
# A B C D E F G H I J K L M N O P Q R S T U V W X Y Z

Cabezones - Sueles Dejarme tab

Cabezones - Sueles dejarme solo
Tabbed By: Santiago Samayoa
EMail: agssar@yahoo.com.ar


Intro
   D5  D5     A#5    D5  
E|------------------------|
B|------------------------|
G|-----7------3--3-3-5--5-|
D|-0-0-7--0-0-3--3-3-5--5-|
A|-0-0-5--0-0-1--1-1-3--3-|
D|-0-0----0-0-------------|

w/distortion
[ Tab from: http://www.guitaretab.com/c/cabezones/123447.html ]
   D5  D5     A#5    D5    D5  D5     A#5    D5    D5  D5   A#5      8va   
D5  D5   A#5 F5
E|-----------------------------------------------------------------------------------------|
B|-----------------------------------------------------------------------------------------|
G|-----7------3--3-3-5--5------7------3--3-3-5--5------7----3--3-3-5--9--------7----3------|Repite Riffs
D|-0-0-7--0-0-3--3-3-5--5--0-0-7--0-0-3--3-3-5--5--0-0-7--0-3--3-3-5----8--0-0-7--0-3---3--|
A|-0-0-5--0-0-1--1-1-3--3--0-0-5--0-0-1--1-1-3--3--0-0-5--0-1--1-1-3--7-8--0-0-5--0-1---3--|
D|-0-0----0-0--------------0-0----0-0--------------0-0----0-------------8--0-0----0-----3--|
Related for Sueles Dejarme tab
Advertisement will be closed in 10 seconds