Song name
# A B C D E F G H I J K L M N O P Q R S T U V W X Y Z

Cabezones - Hombre Paranoico tab

Cabezones - Hombre Paranoico
Tabbed By: Santiago Samayoa
EMail: agssar@yahoo.com.ar


e|------------------------------------------------------------------------------|
b|------------------------------------------------------------------------------|
g|------------------------------------------------------------------------------|
d|-6-6-0-0-3--0-0-2-3-2-6-6-0-0-3--0-0-2-3-2-6-8-8-0-0-3-0-0-2-3-2-6-6-0-0-3----|
a|-6-6-0-0-3--0-0-2-3-2-6-6-0-0-3--0-0-2-3-2-6-8-8-0-0-3-0-0-2-3-2-6-6-0-0-3----|
e|-6-6-0-0-3--0-0-2-3-2-6-6-0-0-3--0-0-2-3-2-6-8-8-0-0-3-0-0-2-3-2-6-6-0-0-3----|
 main riff= w/ equa. dist.                                                    

e|----------|----------------------------------------------------------|--------|
b|----------|----------------------------------------------------------|--------|
g|----------|-6-6-0-3-0-0-2-3-6-6-0-0-3-0-0-2-3-6-6-0-0-3-0-0-2-3--6-6-0-0-3-0-0|
d|-0-0-2-3-2|-6-6-0-3-0-0-2-3-6-6-0-0-3-0-0-2-3-6-6-0-0-3-0-0-2-3--6-6-0-0-3-0-0|
a|-0-0-2-3-2|-6-6-0-3-0-0-2-3-6-6-0-0-3-0-0-2-3-6-6-0-0-3-0-0-2-3--6-6-0-0-3-0-0|
e|-0-0-2-3-2|-6-6-0-3-0-0-2-3-6-6-0-0-3-0-0-2-3-6-6-0-0-3-0-0-2-3--6-6-0-0-3-0-0|
            verse
Tap to rate this tab
# A B C D E F G H I J K L M N O P Q R S T U V W X Y Z