Song name
# A B C D E F G H I J K L M N O P Q R S T U V W X Y Z

Cable - Fury tab

Help us improve GuitareTab! Take a short survey!
----------------------------------------------------------------------------
			     Fury - Cable
----------------------------------------------------------------------------
Tabbed by: fishy_sluggish
Email: psycho_slug07@hotmail.com
Tuning: Normal

E|-----------------------------------|
B|-----------------------------------|
G|-----------------------------------|
D|-------7-7---5-5-------------------|x3
A|------------------77---------------|
E|--5-5------------------------------|

E|-----------------------------------|
B|-----------------------------------|
G|-----------------------------------|
D|-----------------7-7---------------|x3
A|-------7-7--5-5--------------------|
E|--5-5------------------------------|

E|-----------------------------------|
B|-----------------------------------|
G|-----------------------------------|
D|------------5-5--7-7---------------|x3
A|-------7-7-------------------------|
E|--5-5------------------------------|

E|-----------------------------------|
B|-----------------------------------|
G|-----------------------------------|
D|-----------------5-5---------------|x3
A|-------5-5--7-7--------------------|
E|--7-7------------------------------|

E|-----------------------------------|
B|-----------------------------------|
G|-----------------------------------|
D|-----------------------------------|x3
A|-------7-7--5-5--------------------|
E|--5-5------------------------------|

E|-----------------------------------|
B|-----------------------------------|
G|-----------------------------------|
D|-----------------5-5--7-7----------|x3
A|-------5-5--7-7--------------------|
E|--7-7------------------------------|

E|-----------------------------------|
B|-----------------------------------|
G|-----------------------------------|
D|-------7--5-----7^^^^--------------|x3
A|-------------7---------------------|
E|--5-5------------------------------|


      Key:
| /  slide up
| \  slide down
| h  hammer-on
| p  pull-off
| ~  vibrato
| +  harmonic
| x  Mute note
============================================================================
Related for Fury tab