Song name
# A B C D E F G H I J K L M N O P Q R S T U V W X Y Z

Cachorro Grande - Sintonizado tab

"Sintonizado"
Cachorro Grande
Tab: Mateus Pranzetti

 Riff 1
e---------2--------------------------2-|
B-----3-----3----------------------3---|
G---2---2-----2-----------0------2-----|
D-0---------------------2---2--0-------|
A-----------------0-2-3----------------|
E--------------------------------------|

Riff 2a                     Riff 2b
e-5-7--7--------7---------||-8-----------8----------|
B-5-8----9---9----9---9---||---10----10----10----10-|
G-5-9------9--------9-----||------10----------10----|
D-5-9---------------------||------------------------|
A-7-7---------------------||------------------------|
E-5-----------------------||------------------------|

  Am7                                            E7
Quando ela pensou que eu tinha ido eu resolvi ficar
  Am7                                            E7     D7
Quando ela pensou que eu tinha ido eu resolvi ficar porque

 A7
Eu fico sintonizado                        |
 D               C              D   *      | 2 vezes
Todas energias do teu corpo estrelado      |
 F           C            E7
E tudo bem! Oh yeah! Oh yeah...

  Am7                                          E7
Quando ela prensou bebendo vinho eu pressenti no ar
  Am7                                          E7     D7
Que ela sacou que eu vinha vindo, eu resolvi chegar porque

 A7
Eu fico sintonizado                        |
 D               C              D   *      | 2 vezes
Todas energias do teu corpo estrelado      |
 F           C            E7
E tudo bem! Oh yeah! Oh yeah...

Riff 2a (3 vezes) e depois Riff 2b.

Interlude: Am7 E Am7 E D7

 A7
Eu fico sintonizado                        |
 D               C              D   *      | 2 vezes
Todas energias do teu corpo estrelado      |
 F           C            E7
E tudo bem! Oh yeah! Oh yeah...

Am7 Em

*Riff 1 ao longo do verso.
Tap to rate this tab
 
# A B C D E F G H I J K L M N O P Q R S T U V W X Y Z