Song name
# A B C D E F G H I J K L M N O P Q R S T U V W X Y Z

Cacophony - Concerto tab

Concerto By Cacophony

Jason Becker



                         Tempo = 140                                     
     W                   H.              H.              H.              
E||-------------------|---------------|---------------|-----------------|
B||-------------------|---------------|---------------|-----------------|
G||-------------------|---------------|--6------------|--6br------------|
D||-------------------|--4------------|---------------|-----------------|
A||-------------------|---------------|---------------|-----------------|
E||-------------------|---------------|---------------|-----------------|


  H.              H.              H.               H.              
---------------|---------------|----------------|-----------------|
---------------|---------------|----------------|-----------------|
--4------------|---------------|--4b------------|--4br------------|
---------------|--3------------|----------------|-----------------|
---------------|---------------|----------------|-----------------|
---------------|---------------|----------------|-----------------|


  H.              H.                H        Q        H        E.    S   
---------------|---------------|------------------|---------------------|
---------------|---------------|-------------9----|--10--------9h---10h-|
--2------------|---------------|--/11-------------|---------------------|
---------------|--4------------|------------------|---------------------|
---------------|---------------|------------------|---------------------|
---------------|---------------|------------------|---------------------|


  E.  H        S    Q.      E.   S S S    Q.      E.   S S S    H.            
--L--------------|---------------------|---------------------|---------------|
--9--------------|---------------------|---------------------|---------------|
------7--------L-|--9------11---11-9-8-|--9------11---11-9-8-|--9------------|
-----------------|---------------------|---------------------|---------------|
-----------------|---------------------|---------------------|---------------|
-----------------|---------------------|---------------------|---------------|


   H.               T  T T T T T  T  T  T T T T T  T T T T T T  T T  T T T  
----------------|--10p-7-------7-12p-7-10-7-------10-7-------7-12-7-10-7---|
----------------|--------8---8--------------8---8------8---8-------------8-|
--10------------|----------7------------------7----------7-----------------|
----------------|----------------------------------------------------------|
----------------|----------------------------------------------------------|
----------------|----------------------------------------------------------|


  T T T T T T  T  T T T T T T T T  T T T T T T T T T  
-----------------------------------------------------|
--8-5-------5-10p-5-8-5-------5-8p-5-------5-8-5-2---|
------6-5-6-------------6-5-6--------6-5-6---------5-|
-----------------------------------------------------|
-----------------------------------------------------|
-----------------------------------------------------|


   T T T  T T T  T T  T  T T  T  T  T  T  T  T  T  T  T  T  T  T  T  
---------------------------9-10-14-12-10----12-14-15-14-12----14-15-|
-------------------8-10-12---------------14----------------15-------|
--11-9-7----7-9-11--------------------------------------------------|
---------11---------------------------------------------------------|
--------------------------------------------------------------------|
--------------------------------------------------------------------|


   T  T  T  T  T  T  T  T  T  T  T  T  T  T  T  T  T  T  T  T  T  T  T  T  
--17-15-14----15-17-19-17-15----17-19-20-19-17----------------------17-19-|
-----------17----------------19----------------20-19-17----17-19-20-------|
--------------------------------------------------------19----------------|
--------------------------------------------------------------------------|
--------------------------------------------------------------------------|
--------------------------------------------------------------------------|


   T   T  T  T  T  T  T   T  T  T  T  T  T   T  T  T  T  T  T   T  T  T  T  T  
--20p-17----------17-20p-17----------17-20p-17----------17-20p-17----------17-|
---------18----18-----------18----18-----------18----18-----------18----18----|
------------17-----------------17-----------------17-----------------17-------|
------------------------------------------------------------------------------|
------------------------------------------------------------------------------|
------------------------------------------------------------------------------|


   T   T  T  T  T  T  T  T  T  T  T  T  T  T  T  T  T  T  T  T  T  T  T  T  
---------------------------------------------------------------------------|
--18p-15----------15-20-15-18-15----------15-18-15----------15-20-15-18-15-|
---------16-15-16----------------16-15-16----------16-15-16----------------|
---------------------------------------------------------------------------|
---------------------------------------------------------------------------|
---------------------------------------------------------------------------|


   T  T  T   T  T  T  T  T  T  T  T  T  T  T  T  T  T  T  T  T  T  T  T  T  
--17-13-13h-15-13-13-------------------------------------------------------|
---------------------17-15-13-15-13----------------------------------------|
------------------------------------16-14-13-14-13-------------------------|
---------------------------------------------------15-14-12----------------|
------------------------------------------------------------15-14-12-12-14-|
---------------------------------------------------------------------------|


   T  T  T  T  T  T  T  T  T  T  T  T  T  T  T  T  T  T  T  T  T  T  T  T  
--------------------------------13-15-17-17-13-13-17-13-13-17-15-13-15-13-|
-----------------------13-15-17-------------------------------------------|
--------------13-14-16----------------------------------------------------|
-----12-14-15-------------------------------------------------------------|
--15----------------------------------------------------------------------|
--------------------------------------------------------------------------|


   T  T  T  T  T  T  T  T  T  T  T  T  T  T  T  T  T  T  T  T  T  T  T  T  
--------------------------------------------------------------------------|
--17-15-13----------------------------------------------------------------|
-----------16-14-13----------------------------------13-14-16-14-13-14-13-|
--------------------15-14-12----------------12-14-15----------------------|
-----------------------------15-14-12-14-15-------------------------------|
--------------------------------------------------------------------------|


   T  T  T  T  T  T  T  T  H             H          Q        Q     H          
-------------------------------------|-------------------|-------------------|
-------------------------------------|--17b--------17----|--15----15b--------|
-----13-------------------14b--------|-------------------|-------------------|
--15----15-14-15-14-12-14------------|-------------------|-------------------|
-------------------------------------|-------------------|-------------------|
-------------------------------------|-------------------|-------------------|


   Q     Q     Q         H.               H.               Q     H          
---------------------|----------------|----------------|--------17b--------|
--15----14----14b----|---L------------|--19------------|---L---------------|
---------------------|----------------|----------------|-------------------|
---------------------|----------------|----------------|-------------------|
---------------------|----------------|----------------|-------------------|
---------------------|----------------|----------------|-------------------|


   H.               S  S S  S  S  S  S  S S  S  S  S  
---L------------|--------9-14p-9----------9-10p-9----|
----------------|-----10---------10----10---------12-|
----------------|--11---------------11---------------|
----------------|------------------------------------|
----------------|------------------------------------|
----------------|------------------------------------|


   S  S S  S  S S  S  S S  S  S S     S  S S  S  S  S  S  S S  S  S  S  
--------9---------12-10-9---------|--------9-14p-9----------9-10p-9----|
--10-12---12-10-9---------12-10-9-|-----10---------10----10---------12-|
----------------------------------|--11---------------11---------------|
----------------------------------|------------------------------------|
----------------------------------|------------------------------------|
----------------------------------|------------------------------------|


   S  S S  S  S S  S  S  S  S  S  S     S  S S  S  S  S  S  S S  S  S  S  
--------9---------14-12-10----------|--------9-14p-9----------9-10p-9----|
--10-12---12-10-9----------14-12-10-|-----10---------10----10---------12-|
------------------------------------|--11---------------11---------------|
------------------------------------|------------------------------------|
------------------------------------|------------------------------------|
------------------------------------|------------------------------------|


   S  S S  S  S S  S  S S  S  S S     S  S S  S  S  S  S  S S  S  S  S  
--------9---------12-10-9---------|--------9-14p-9----------9-10p-9----|
--10-12---12-10-9---------12-10-9-|-----10---------10----10---------12-|
----------------------------------|--11---------------11---------------|
----------------------------------|------------------------------------|
----------------------------------|------------------------------------|
----------------------------------|------------------------------------|


   S  S S  S  S S  S  S  S  S  S  S     S  S S  S  S  S  S  S S  S  S  S  
--------9---------14-12-10----------|--------9-14p-9----------9-10p-9----|
--10-12---12-10-9----------14-12-10-|-----10---------10----10---------12-|
------------------------------------|--11---------------11---------------|
------------------------------------|------------------------------------|
------------------------------------|------------------------------------|
------------------------------------|------------------------------------|


   S  S S  S  S S  S  S S  S  S S     S  S S  S  S  S  S  S S  S  S  S  
--------9---------12-10-9---------|--------9-14p-9----------9-10p-9----|
--10-12---12-10-9---------12-10-9-|-----10---------10----10---------12-|
----------------------------------|--11---------------11---------------|
----------------------------------|------------------------------------|
----------------------------------|------------------------------------|
----------------------------------|------------------------------------|


   S  S S  S  S S  S  S  S  S  S  S     S  S S  S  S  S  S  S S  S  S  S  
--------9---------14-12-10----------|--------9-14p-9----------9-10p-9----|
--10-12---12-10-9----------14-12-10-|-----10---------10----10---------12-|
------------------------------------|--11---------------11---------------|
------------------------------------|------------------------------------|
------------------------------------|------------------------------------|
------------------------------------|------------------------------------|


   S  S S  S  S S  S  S S  S  S S     S S  S  S  S S  S S  S  S  S S  
--------9---------12-10-9---------|--13-9-10-13-10-9-----------------|
--10-12---12-10-9---------12-10-9-|------------------12-9-10-12-10-9-|
----------------------------------|----------------------------------|
----------------------------------|----------------------------------|
----------------------------------|----------------------------------|
----------------------------------|----------------------------------|


   S  S  S  S  S  S  Q.         S  S S  S  S  S  S  S S  S  S  S  
----------------------------|------------------------------------|
----------------------------|------------------------------------|
--13-10-11-13-11-10---------|------------------------------------|
--------------------11------|--------9-14p-9----------9-14p-9----|
----------------------------|-----11---------11----11---------11-|
----------------------------|--12---------------12---------------|


   S  S S S  S  S S  S  S  S S  S     S  S  S  S   S  S  S  S  S  S   S  S  
----------------------------------|----------------------------------------|
----------------------------------|----------------------------------------|
----------9-13p-9-----------------|--------11-16p-11----------11-16p-11----|
--------9---------9----------9----|-----13-----------13----13-----------13-|
-----11-------------11----11---11-|--14-----------------14-----------------|
--12-------------------12---------|----------------------------------------|


   S  S  S  S  S  S  S  S  S  S  S  S     S  S  S  S   S  S  S  S  S  S   S  S  
--------------11----------------------|----------------------------------------|
-----------12----12-------------------|----------------------------------------|
--------11----------11----------11----|--------13-18p-13----------13-18p-13----|
-----13----------------13----13----13-|-----14-----------14----14-----------14-|
--14----------------------14----------|--16-----------------16-----------------|
--------------------------------------|----------------------------------------|


   S  S  S  S  S  S  S   S  S  E.      H          Q           E   E   H         
-----------------16-21p-16---------|----------------------|--------------------|
--------------17-----------17------|--17b--------17pbr----|--16--17--16--------|
--------13-18-----------------18---|----------------------|--------------------|
-----14----------------------------|----------------------|--------------------|
--16-------------------------------|----------------------|--------------------|
-----------------------------------|----------------------|--------------------|


   S  S S  S  S  S  S  S S  S  S  S     S  S S S  S  S S  S  S  S S  S  
------------------------------------|----------------------------------|
------------------------------------|----------------------------------|
------------------------------------|----------9-13p-9-----------------|
--------9-14p-9----------9-14p-9----|--------9---------9----------9----|
-----11---------11----11---------11-|-----11-------------11----11---11-|
--12---------------12---------------|--12-------------------12---------|


   E   E   E   E   E   S  S     H.             
----------12--15--12---L----|-----------------|
------13-----------------13-|-----------------|
--12------------------------|--12~------------|
----------------------------|-----------------|
----------------------------|-----------------|
----------------------------|-----------------|


   S  S  S  S   S  S  S  S  S  S   S  S  
----------------------------------------|
----------------------------------------|
----------------------------------------|
--------10-15p-10----------10-15p-10----|
-----12-----------12----12-----------12-|
--13-----------------13-----------------|


   S  S  S  S  S   S  S  S  S  S  S  S     S  S  S  S  S  S  S  S  S  S  S  S  
---------------------------------------|--------------------------------------|
---------------------------------------|--------------------------------------|
-----------10-14p-10-------------------|--------------------------------------|
--------10-----------10----------10----|--------------------12-15----12-15-15-|
-----12-----------------12----12----12-|--11-14-11----11-14-------14----------|
--13-----------------------13----------|-----------13-------------------------|


   S  S  E   H            S  S  S  S   S  S  S  S  S  S   S  S  
----------------------|--------12-17p-12----------12-13p-12----|
-----12-15---L--------|-----13-----------13----13-----------15-|
--13------------------|--14-----------------14-----------------|
----------------------|----------------------------------------|
----------------------|----------------------------------------|
----------------------|----------------------------------------|


   S  S  S  S  S  S  S  S  S  S  S  S     S  S  S  S   S  S  S  S  S  S   S  S  
--------12----------15-13-12----------|--------12-17p-12----------12-13p-12----|
--13-15----15-13-12----------15-13-12-|-----13-----------13----13-----------15-|
--------------------------------------|--14-----------------14-----------------|
--------------------------------------|----------------------------------------|
--------------------------------------|----------------------------------------|
--------------------------------------|----------------------------------------|


   S  S  S  S  S  S  S  S  S  S  S  S     S  S  S  S   S  S  S  S  S  S   S  S  
--------12----------17-15-13----------|--------12-17p-12----------12-13p-12----|
--13-15----15-13-12----------17-15-13-|-----13-----------13----13-----------15-|
--------------------------------------|--14-----------------14-----------------|
--------------------------------------|----------------------------------------|
--------------------------------------|----------------------------------------|
--------------------------------------|----------------------------------------|


   S  S  S  S  S  S  S  S  S  S  S  S     S  S  S  S   S  S  S  S  S  S   S  S  
--------12----------15-13-12----------|--------12-17p-12----------12-13p-12----|
--13-15----15-13-12----------15-13-12-|-----13-----------13----13-----------15-|
--------------------------------------|--14-----------------14-----------------|
--------------------------------------|----------------------------------------|
--------------------------------------|----------------------------------------|
--------------------------------------|----------------------------------------|


   S  S  S  S  S  S  S  S  S  S  S  S     S  S  S  S   S  S  S  S  S  S   S  S  
--------12----------17-15-13----------|--------12-17p-12----------12-13p-12----|
--13-15----15-13-12----------17-15-13-|-----13-----------13----13-----------15-|
--------------------------------------|--14-----------------14-----------------|
--------------------------------------|----------------------------------------|
--------------------------------------|----------------------------------------|
--------------------------------------|----------------------------------------|


   S  S  S  S  S  S  S  S  S  S  S  S     S  S  S  S   S  S  S  S  S  S   S  S  
--------12----------15-13-12----------|--------12-17p-12----------12-13p-12----|
--13-15----15-13-12----------15-13-12-|-----13-----------13----13-----------15-|
--------------------------------------|--14-----------------14-----------------|
--------------------------------------|----------------------------------------|
--------------------------------------|----------------------------------------|
--------------------------------------|----------------------------------------|


   S  S  S  S  S  S  S  S  S  S  S  S     S  S  S  S   S  S  S  S  S  S   S  S  
--------12----------17-15-13----------|--------12-17p-12----------12-13p-12----|
--13-15----15-13-12----------17-15-13-|-----13-----------13----13-----------15-|
--------------------------------------|--14-----------------14-----------------|
--------------------------------------|----------------------------------------|
--------------------------------------|----------------------------------------|
--------------------------------------|----------------------------------------|


   S  S  S  S  S  S  S  S  S  S  S  S     S  S  S  S  S  S  S  S  S  S  S  S  
--------12----------15-13-12----------|--16-12-13-16-13-12-------------------|
--13-15----15-13-12----------15-13-12-|--------------------15-12-13-15-13-12-|
--------------------------------------|--------------------------------------|
--------------------------------------|--------------------------------------|
--------------------------------------|--------------------------------------|
--------------------------------------|--------------------------------------|


   S  S  S  S  S  S  Q      E      Q.      Q.         Q.      Q.      
-------------------------------|------------------|------------------|
-------------------------------|------------------|--17--------------|
--16-13-14-16-14-13------------|--18--------------|----------18------|
--------------------14~-----L--|----------19------|------------------|
----------------------------L--|------------------|------------------|
-------------------------------|------------------|------------------|


   Q.      Q.         H.                S   S  S  S  S  S  S   S  S  S  S  S  
--17--------------|--19b------------|--21p-17----------17-19p-16----------16-|
----------17------|-----------------|---------17----17-----------17----17----|
------------------|-----------------|------------18-----------------16-------|
------------------|-----------------|----------------------------------------|
------------------|-----------------|----------------------------------------|
------------------|-----------------|----------------------------------------|


   S  S  S  S  S S   S   S  S  S  S  S     S  S  S  S  S S   S   S  S  S  S  S  
--14p-9----------9s-16p-13----------13-|--14p-9----------9s-16p-13----------13-|
--------10----10-----------14----14----|--------10----10-----------14----14----|
-----------11-----------------16-------|-----------11-----------------16-------|
---------------------------------------|---------------------------------------|
---------------------------------------|---------------------------------------|
---------------------------------------|---------------------------------------|


  |---3--|                                                      
  S   S  S  S S  S  S S  S  S S  S S    E  S S S S S S S S S S  
--9h-12p-9-------------------------9-|-------------------------|
-----------10-------------------10---|-------------------------|
--------------9---------------9------|--2----------------------|
----------------11---------11--------|--2----------------------|
-------------------12-7-12-----------|--0--0-0-0-0-0-0-0-0-0-0-|
-------------------------------------|-------------------------|


  E  S S S S S S S S S S    E  S S S S S S S S S S    E  S S S S S S S S S S  
-------------------------|-------------------------|-------------------------|
-------------------------|-------------------------|-------------------------|
--2----------------------|-------------------------|-------------------------|
--2----------------------|--2----------------------|--2----------------------|
--0--0-0-0-0-0-0-0-0-0-0-|--2----------------------|--2----------------------|
-------------------------|--0--0-0-0-0-0-0-0-0-0-0-|--0--0-0-0-0-0-0-0-0-0-0-|


  E  S S S S S S S S S S    E  S S S S S S S S S S    E  S S S S S S S S S S  
-------------------------|-------------------------|-------------------------|
-------------------------|-------------------------|-------------------------|
--2----------------------|--2----------------------|-------------------------|
--2----------------------|--2----------------------|--2----------------------|
--0--0-0-0-0-0-0-0-0-0-0-|--0--0-0-0-0-0-0-0-0-0-0-|--2----------------------|
-------------------------|-------------------------|--0--0-0-0-0-0-0-0-0-0-0-|


  E  S S S S S S S S S S    E  S S S S S S S S S S    E  S S S S S S S S S S  
-------------------------|-------------------------|-------------------------|
-------------------------|-------------------------|-------------------------|
-------------------------|-------------------------|-------------------------|
--2----------------------|--3----------------------|--3----------------------|
--2----------------------|--3----------------------|--3----------------------|
--0--0-0-0-0-0-0-0-0-0-0-|--1--1-1-1-1-1-1-1-1-1-1-|--1--1-1-1-1-1-1-1-1-1-1-|


                           |--3--|  |--3--|  
   S  S  S  S  S  S  S  S  S  S  S  S  S  S  
--------------------------------------------|
--------------------------------------------|
--------------------------------------14-17-|
--------------13-------13-------13-16-------|
--------12-15----12-15----12-15-------------|
--11-14-------------------------------------|


   |--3--|  |--3--|  |--3--|  |--3--|            
   S  S  S  S  S  S  S  S  S  S  S  S  S  S S S  
------------------------------------------------|
--------------------16-19-19----------17b-L-L-L-|
--------14-17-14-17----------17----17-----------|
--13-16-------------------------16--------------|
------------------------------------------------|
------------------------------------------------|


   S  S  S  S  S  S  S  S  S  S  S  S     S  S  S  S  S  S  Q.      
--------------------------------------|----------------------------|
--15-15-------------------------------|----------------------------|
--------14-11-14-11-14-14-11----------|----------------------------|
-----------------------------12-14-12-|--14-14-12------------------|
--------------------------------------|-----------12---------------|
--------------------------------------|--------------14-12-10------|


  S  S S  S S  S S  S S  S S  S    S  S S  S S  S S  Q     S  
--------------------------------|----------------------------|
--------------------------------|------------9----9-11-----L-|
---------------------------8----|--8-11-8-11---11------------|
------------8----8-11-8-11---11-|----------------------------|
--9-11-9-11---11----------------|----------------------------|
--------------------------------|----------------------------|


   S  S  S S  S S  S  S S  S  S  S     S  S  S  S  S  S Q    E   
-----------------------------------|----------------------------|
--13-13----------------------------|----------------------------|
--------12-9-12-9-12-12-9----------|----------------------------|
--------------------------12-10-12-|--12-12-10------------------|
-----------------------------------|-----------10---------------|
-----------------------------------|--------------12-10-8-------|


  S S S S S S S S S S S S    S S S S S S S Q    S  
--------------------------|-----------------------|
--------------------------|----------7---7-9----L-|
----------------------6---|--6-9-6-9---9----------|
----------6---6-9-6-9---9-|-----------------------|
--7-9-7-9---9-------------|-----------------------|
--------------------------|-----------------------|


   S  S S S S S  S S S S S S    S S S S S  S S S S S  S  S  
--10-------------------------|-----------------------------|
-----10-8-------10-8---------|--8--------------------------|
----------8-7--------8-7-----|----8-7--------8-7-----------|
--------------8----------8-7-|--------8-7--------8-7-------|
-----------------------------|------------10---------10----|
-----------------------------|--------------------------11-|


   S  S  S  S  S  S  S  S  S  S  S  S     S  S  S  S  S  S  S  S  S  S  S  S  
--------------------------------------|--------------------------------15-18-|
--------------------------------------|--------------15-18-------15-18-------|
--------------------------------15-17-|--------15-17-------15-17-------------|
--------------15-17-------15-17-------|--15-17-------------------------------|
--------15-17-------15-17-------------|--------------------------------------|
--15-18-------------------------------|--------------------------------------|


   H.                S S S S S S S S S S S S    S S S S S S S S S S S S  
--18b~------------|--------------------------|--------------------------|
------------------|--------------------------|--------------------------|
------------------|--6-7-9-7-6-------6-7-6---|--6-7-9-7-6-------6-7-6---|
------------------|------------8-7-8-------8-|------------8-7-8-------8-|
------------------|--------------------------|--------------------------|
------------------|--------------------------|--------------------------|


  S S S S S S  S S S S S S     S S S S S S S S Q       S S S S S S S S S S S S  
---------------------------|------------------------|----------3-6-9-6---------|
--------6-8-6-10-6-8---6---|------------------------|--------5---------8-------|
--6-7-9--------------9---7-|--10-6-7---6------------|----3-6-------------9-6---|
---------------------------|---------8---8-7-8------|--5---------------------8-|
---------------------------|-------------------7----|--------------------------|
---------------------------|------------------------|--------------------------|


   S S  S  S S  S  S  S  S  S  S  S     S  S  S  S  S  S  S  S  S  S  S  S  
-------------9-12-15-12-------------|-----------12-15-12-18-15-------------|
----------11------------14----------|--------14----------------17----------|
-----9-12------------------15-12----|--12-15----------------------18-15----|
--11-----------------------------14-|-----------------------------------17-|
------------------------------------|--------------------------------------|
------------------------------------|--------------------------------------|


   S  S  S  S  S  S  Q.          S  S S S S S  S  S S S S S  
-----------18----18-18b------|------------------------------|
--------17----17-------------|--10p-6-6-6-6-6-10p-6-6-6-6-6-|
--15-18----------------------|------------------------------|
-----------------------------|------------------------------|
-----------------------------|------------------------------|
-----------------------------|------------------------------|


  S  S S S S S S  S S S S S    S  S S S  S S S  S S S  S S  
----------------------------|------------------------------|
--8p-5-5-5-5-5-8p-5-5-5-5-5-|------------------------------|
----------------------------|--------------7-9-10-9-7------|
----------------------------|--9----7-9-10------------10-9-|
----------------------------|----11------------------------|
----------------------------|------------------------------|


  S S  S S S S Q.         S  S S S S S  S  S S S S S  
----------------------|------------------------------|
----------------------|------------------------------|
--9-7-----------------|--10p-7-7-7-7-7-10p-7-7-7-7-7-|
------10-9-7-6-7------|------------------------------|
----------------------|------------------------------|
----------------------|------------------------------|


   S   S  S  S  S  S  S   S  S  S  S  S     S   S  S  S  S  S S  S S  S S  S  
----------------------------------------|--13p-10----------------------------|
--13p-10-10-10-10-10-13p-10-10-10-10-10-|---------12-------------------------|
----------------------------------------|------------13-10-------------------|
----------------------------------------|------------------12-9--------------|
----------------------------------------|-----------------------11-8---------|
----------------------------------------|----------------------------10-7-10-|


  S  S S  S  S  S  Q.          S  S  S  S  S  S  S  S  S  S  S  S  
---------------------------|-----------13-10-10-15-12-12----------|
---------------------------|--13-10-10-------------------15-12-12-|
------------10-13-13b------|--------------------------------------|
-------9-12----------------|--------------------------------------|
--8-11---------------------|--------------------------------------|
---------------------------|--------------------------------------|


   S  S  S  S  S  S  S  S  S  S  S  S     S  S  S  S  S  S  S  S  S  S  S  S  
-----------17-13-13-19-15-15----------|--------------------------------------|
--17-13-13-------------------18-15-15-|--18-15-17-18-17-18-18-15-17-18-17-15-|
--------------------------------------|--------------------------------------|
--------------------------------------|--------------------------------------|
--------------------------------------|--------------------------------------|
--------------------------------------|--------------------------------------|


   S  S  S  S  S  S  S  S Q        S  S  S  S  S  S  S  S  S  S  S  S  
-------------------------------|-----------13-10-10-15-12-12----------|
--17-15----15------------------|--13-10-10-------------------15-12-12-|
--------17----17-16-17---------|--------------------------------------|
-----------------------19-L----|--------------------------------------|
-------------------------------|--------------------------------------|
-------------------------------|--------------------------------------|


   S  S  S  S  S  S  S  S  S  S  S  S     S  S  S  S  S  S  S  S  S  S  S  S  
-----------17-13-13-19-15-15----------|--------------------------------------|
--17-13-13-------------------18-15-15-|--18-15-17-18-17-18-18-15-17-18-17-15-|
--------------------------------------|--------------------------------------|
--------------------------------------|--------------------------------------|
--------------------------------------|--------------------------------------|
--------------------------------------|--------------------------------------|


   S  S  S  S  S  S  S  S Q       S  S S  S  S  S S  S  S S  S  S  
-------------------------------|-------------------------------10-|
--17-15----15------------------|--------------------------9-12----|
--------17----17-16-17--L-L----|------------10-13------10---------|
--------------------------L----|-------9-12-------9-12------------|
-------------------------------|--8-11----------------------------|
-------------------------------|----------------------------------|


   S  S  S  S  S  S  S  S  S  S  S  S     S  S  S  S  S  S  S  S  S  S  S  S  
-----------------13-19-16-------------|-----------16-19-16-22-19-------------|
-----------12-15----------18----------|--------18----------------21----------|
--------13-------------------19-16----|--16-19----------------------22-19----|
--12-15----------------------------18-|-----------------------------------21-|
--------------------------------------|--------------------------------------|
--------------------------------------|--------------------------------------|


   S   S H        E      E.   E.   E.   E.      E.   E.   E.   E.   
---------------------|----------------------|-----------------17---|
---------------------|----------------------|-------15---18--------|
--19~--L-L--------L--|----------------------|--14------------------|
---------------------|-----------------15---|----------------------|
---------------------|------------17--------|----------------------|
---------------------|--13---17-------------|----------------------|


   S  S  S  E.   E.   E.      H.              
--16-17-16----------------|------------------|
-----------18---17---18---|--18b~------------|
--------------------------|------------------|
--------------------------|------------------|
--------------------------|------------------|
--------------------------|------------------|


   S   S  S  S  S  S  S   S  S  S  S  S  
--17p-14----------14-19p-15----------15-|
---------15----15-----------15----15----|
------------14-----------------16-------|
----------------------------------------|
----------------------------------------|
----------------------------------------|


   S   S  S  S  S  S  S   S  S  S  S  S     S  S  S  S  S  S  S  S  S  S  S  S  
--20p----------------19h----------------|--20-17-------19-------------17-------|
------20----------20-----20----------20-|--------19-20----19-20----19----17-19-|
---------21----21-----------19----19----|-----------------------21-------------|
------------22-----------------21-------|--------------------------------------|
----------------------------------------|--------------------------------------|
----------------------------------------|--------------------------------------|


   S  S  S  S  S  S  Q.      
----------------------------|
-----17-20-19---------------|
--19----------19------------|
-----------------19-16------|
----------------------------|
----------------------------|


   T  T  T  T  T  T  T  T  T  T  T  T  T  T  T  T  T  T  T  T  T  T  T  T  
--------------------15----------------------------------12----------------|
-----------------15----15----------------------------12----12-------------|
--------------16----------16----------------------12----------12----------|
-----------17----------------17----------------14----------------14-------|
--------17----------------------17----------14----------------------14----|
--15-19----------------------------19-12-15----------------------------15-|


   T  T  T  T  T  T  T  T  T  T  T  T  T  T  T  T  T  T  T  T  T  T  T  T  
--------------------15-------------------------------12-15-19-15----------|
-----------------15----15-------------------------12-------------17-------|
--------------16----------16-------------------12-------------------16----|
-----------17----------------17-------------14-------------------------17-|
--------17----------------------17-------14-------------------------------|
--15-19----------------------------19-15----------------------------------|


   T  T  T  T  T  T  T  T  T  T  T  T  S   S  S  S   S  S  
--------------------15----------------17p-14----19p-15----|
-----------------15----15--------------------15--------15-|
--------------16----------16------------------------------|
-----------17----------------17---------------------------|
--------17----------------------17------------------------|
--15-19----------------------------19---------------------|


   S   S  S  S  S  S  E   S  S  S  S     S  S  S  S  S  S  E   S  S  S  S  
--17p-14-----------------------------|------------------------------------|
---------15--------------------------|------------------------------------|
------------14-----------------------|--------14--------------------------|
---------------16----16--16-17-16-14-|-----16----16-----------------------|
------------------17-----------------|--17----------17--------------------|
-------------------------------------|-----------------17-14--14-15-14-12-|


   |--3-| |-3-| |-3-| |-3-| |--3-| |-3-|  
   S  S S S S S S S S S S S S  S S S S S  
-----------------------------------------|
-----------------------------------------|
-----------------------------------------|
---------------------------------------7-|
-----------------------------------9-L---|
--10~---------------------L---10---L-----|


                                               tr              
  |-3-| |-3-| |--3-|  |-3-| |-3-| |-3-|                        
  S S S S S S S S  S  S S S S S S S S S    E.  Q.        S E   
----------------------------------------|------------------L--|
--------7-L-8-L-L-10--L-L-L-L-L-L-L-L-L-|--8---7(8)-----------|
----7---L-------------------------------|----------------9-L--|
------L---------------------------------|---------------------|
--L-------------------------------------|---------------------|
----------------------------------------|---------------------|


                                                    tr                  
  Q    S S S S S E  S    E.  E.    Q     E     E  S S    Q    S  S S S  
----------------------|---------------------|--------------------------|
----------------------|---------------------|--------------------------|
--7----L-L-L-L-L-7--L-|--9---9br---9b----L--|--9--L-7(9)-L----L--------|
----------------------|---------------------|-------------------11-L-L-|
----------------------|---------------------|--------------------------|
----------------------|---------------------|--------------------------|


  Q    S S S S S S S S     S S S S S S S S  S S S S    H.            
-----------------------|----------------------------|---------------|
-----------------------|----------------------------|---------------|
-----------------------|-----L---7-L-L-7------------|---------------|
--9----L-L-L-L-L-9-L-L-|--11-L-L-L-------7~-L-L-L-L-|--L------------|
-----------------------|----------------------------|---------------|
-----------------------|----------------------------|---------------|


                               |-----3----|     |---3---|   
     H.               S  S  S  E   E   S  S  S  E   E   E   
-------------------|------------------14-10-14-10----------|
-------------------|----------12--10---------------10------|
-------------------|-------11--------------------------11--|
--9g11~------------|--L-12---------------------------------|
-------------------|---------------------------------------|
-------------------|---------------------------------------|


   |--3--| |-3-|  |--3-| |-3-| |-3-| |-3-|  
   S  S  S S S S  S  S S S S S S S S S S S  
-------------------------------------------|
--10--L----------10~-L-L-L-L-L-L-L-L-L-L-L-|
--------13-L-L-L---------------------------|
-------------------------------------------|
-------------------------------------------|
-------------------------------------------|


   Tempo = 100                                
   S           S  S  S  S  S S  S S  S  S  S  
--14p---------10-----------------------------|
-----------------10--------------------------|
--------------------11--------------------11-|
-----------------------12--------------12----|
--------------------------12-9----9-12-------|
-------------------------------10------------|


   S  S  S  S  S  S     S   S  S  S  S  S  
-----------------12-17g21p-17----------17-|
--------------14--------------17----17----|
-----------14--------------------18-------|
--------14--------------------------------|
--12-16-----------------------------------|
------------------------------------------|


   S   S  S  S  S  S  S  S  S  S  S  S  
--19p-14----------------------------14-|
---------15----------------------15----|
------------16----------------16-------|
---------------16-12----12-16----------|
---------------------14----------------|
---------------------------------------|


   S   S  S  S  S  S  S   S  S  S  S  S  
--17p-12----12----12-17p-12----12----12-|
---------------14-----------------14----|
---------14-----------------14----------|
----------------------------------------|
----------------------------------------|
----------------------------------------|


   S  S  S  S  S  S  S  S   S   S  S  S     S   S  S  S  S  S  S   S  Q     
--------------------15-19--22p-19----19-|--22p-17----------17-22p-17-------|
-----------------15---------------20----|---------19----19-----------19----|
--------------16------------------------|------------19--------------------|
-----------17---------------------------|----------------------------------|
-----14-17------------------------------|----------------------------------|
--15------------------------------------|----------------------------------|


  T  T  T T  T  T T  T  T T  T  T  T  T  T  T  T  T  T T  T T  T  T  
-------------------------------------------------------9-10-9-------|
-----L----------------------------10-12-10-12-10-12-10--------10-12-|
--------------------------9-11-12-----------------------------------|
------------------9-11-12-------------------------------------------|
--9-10-12-9-10-12---------------------------------------------------|
--------------------------------------------------------------------|


   T  T T  T  T  T T  T  T  T  Q    S S S    Q.      Q.        
--------9-10-12-10-9----------------------|-------------------|
--10-12--------------12-10----------------|---------10br------|
---------------------------12-11----9-L-7-|--7----------------|
------------------------------------------|-------------------|
------------------------------------------|-------------------|
------------------------------------------|-------------------|


                               |--3--|  |--3--|  |--3--|  
   H         E  E      Q.      S  S  S  S  S  S  S  S  S  
------------10--9--|--10---------------10-12-10-14-12-10-|
---L---------------|----------10-12-14-------------------|
-------------------|-------------------------------------|
-------------------|-------------------------------------|
-------------------|-------------------------------------|
-------------------|-------------------------------------|


   |--3--|  |--3--|  |--3--|  |--3--|  |--3--|  |--3--|                      
   S  S  S  S  S  S  S  S  S  S  S  S  S  S  S  S  S  S     Q.      Q.       
--14-12-10----------------10----------------------------|----------15b------|
-----------14-12-10-12-14----14-12-10-14-12-10----10-12-|-------------------|
-----------------------------------------------12-------|--12---------------|
--------------------------------------------------------|-------------------|
--------------------------------------------------------|-------------------|
--------------------------------------------------------|-------------------|


   E   S  S  E     S  E     S  E      H.              
---L--15-14-14br---L-14pbr--L-----|--17br------------|
------------------------------15--|------------------|
---L------------------------------|------------------|
----------------------------------|------------------|
----------------------------------|------------------|
----------------------------------|------------------|


   Q      S    S    E     E   E      H         S  S  E   
--22b----22pb-22pb-22pb--22--21--|--22--------19-21-22--|
---------------------------------|----------------------|
---------------------------------|----------------------|
---------------------------------|----------------------|
---------------------------------|----------------------|
---------------------------------|----------------------|


   Q.       Q       E      H.               H.             
--22b------22br----21--|--22------------|--22b------------|
-----------------------|----------------|-----------------|
-----------------------|----------------|-----------------|
-----------------------|----------------|-----------------|
-----------------------|----------------|-----------------|
-----------------------|----------------|-----------------|


   7  7  7  7  7  7  7  7  7  7  7  7  7  7  7  7  7  7  7  7  7  
   S  S  S  S  S  S  S  S  S  S  S  S  S  S  S  S  S  S  S  S  S  
--22-21-19-21-19----19-------------------------------------------|
-----------------22----22-20-19-20-19----19----------------------|
--------------------------------------21----21-19-18-19-18----18-|
-----------------------------------------------------------21----|
-----------------------------------------------------------------|
-----------------------------------------------------------------|


   7  7  7  7  7  7  7  7  7  7  7  7  7  7  7  7  7  7  7  7  7  
   S  S  S  S  S  S  S  S  S  S  S  S  S  S  S  S  S  S  S  S  S  
-----------------------------------------------------------------|
-----------------------------------------------------------------|
-----------------------------------------------------------------|
--21-19-17-19-17----17-------------------------------------------|
-----------------21----21-19-17-19-17-16-17-16-14-16-14-12-10-12-|
-----------------------------------------------------------------|


   7  7  7  7  7  7  7                                                  
   S  S  S  S  S  S  S  T  T  T  T  T  T  T  T  T  T  T  T  T  T  T  T  
-----------------------------------------------------------------------|
-----------------------------------------------------------------------|
-----------------------------------------------------------------------|
-----------------------------------------------------------------------|
--11-12-10-12-10----12----------------------10-12-14----------10-12-14-|
-----------------14----14-12-14-12-10-12-14----------10-12-14----------|


   T  T  T  T  T  T  T  T  T  T  T  T  T  T  T  T  T  T  T  T  T  T  T  T  
--------------------------------------------------------12-14-15----------|
-----------------------------12-14-15----------12-14-15----------12-14-15-|
--------------------11-12-14----------11-12-14----------------------------|
--11-12-14-11-12-14-------------------------------------------------------|
--------------------------------------------------------------------------|
--------------------------------------------------------------------------|


   T  T  T  T  T  T  T  T  T  T  T  T  T  T  T  T  T  T  T  T  T  T  T  T  
--12-14-15-14-12----------------------------------------------------------|
-----------------15-14-12----------15-14-12-------------------------------|
--------------------------14-12-11----------14-12-11----------14-12-11----|
-----------------------------------------------------14-12-11----------14-|
--------------------------------------------------------------------------|
--------------------------------------------------------------------------|


   T  T  T  T  T  T  T  T  T  T  T  T  T  T  T  T  T  T  T  T  E               
------------------------------------------------------------------|-----|-----|
------------------------------------------------------------------|-----|-----|
------------------------------------------------------------------|-----|-----|
--14-12-11----------14-12-11--------------------------------------|-----|-----|
-----------14-12-10----------14-12-10----------14-12-10-----------|-----|-----|
--------------------------------------14-12-10----------14-12-10--|-----|-----|


-----|-----|-----|-----|-----||
-----|-----|-----|-----|-----||
-----|-----|-----|-----|-----||
-----|-----|-----|-----|-----||
-----|-----|-----|-----|-----||
-----|-----|-----|-----|-----||




Duration Legend
---------------
W - whole
H - half
Q - quarter
E - 8th
S - 16th
T - 32nd
X - 64th
. - note dotted
|-n-|  - n-tuplets


Tablature Legend
----------------
L - tied note
x - dead note
g - grace note
(n) - ghost note
> - accentuded note
NH - natural harmonic
AH - artificial harmonic
TH - tapped harmonic
SH - semi harmonic
PH - pitch harmonic
h - hammer on
p - pull off
b - bend
br - bendRelease
pb - preBend
pbr - preBendRelease
brb - bendReleaseBend
\n/ - tremolo bar dip
\n - tremolo bar dive
-/n - tremolo bar Release up
/n\ - tremolo bar inverted dip
/n - tremolo bar return
-\n - tremolo bar Release down
S - shift slide
s - legato slide
/ -  slide into from below or out of upwards
\ -  slide into from above or out of downwards
~ - vibrato
W - wide vibrato
tr - trill
TP - tremolo picking
T - tapping
S - slap
P - pop
< - fade in
^ - brush up
v - brush down
Tap to rate this tab
# A B C D E F G H I J K L M N O P Q R S T U V W X Y Z