Song name
# A B C D E F G H I J K L M N O P Q R S T U V W X Y Z

Cadallaca - Out West tab

http://www.killrockstars.com/bands/factsheets/cadallaca/

e |-------------------------------|
B |-------------------------------|
G |-------------------------------|
D |-2-5-7---7---7-7---7-7-7-------|
A |-2-5-7---7---7-7---7-7-7-------|
E |-0-3-5---5---5-5---5-5-5---X5--|

e |-----------------------------------------------------------------|
B |-----------------------------------------------------------------|
G |-----------------------------------------------------------------|
D |-7-10-12---12-12---12-12---12-12-12---2-5-7---7-7--7-7-7--7-7-7--|
A |-7-10-12---12-12---12-12---12-12-12---2-5-7---7-7--7-7-7--7-7-7--|
E |-5-8--10---10-10---10-10---10-10-10---0-3-5---5-5--5-5—5--5-5-5--|


e |-----------------------------------------------|
B |-----------------------------------------------|
G |-----------------------------------------------|
D |-7----10-10-10-10-10-10-10--12-12-12-12-12-12--|
A |-7----10-10-10-10-10-10-10--12-12-12-12-12-12--|
E |-5----8--8--8--8--8--8--8---10-10-10-10-10-10--|


Play all of this ^ during Corin’s first verse and up till 0.40


e |-------------------------------|
B |-------------------------------|
G |-------------------------------|
D |-2-5-7---7---7-7---7-7-7-------|
A |-2-5-7---7---7-7---7-7-7-------|
E |-0-3-5---5---5-5---5-5-5---X3--|


e |-----------------------------------------------------------------|
B |-----------------------------------------------------------------|
G |-----------------------------------------------------------------|
D |-7-10-12---12-12---12-12---12-12-12---2-5-7---7-7--7-7-7--7-7-7--|
A |-7-10-12---12-12---12-12---12-12-12---2-5-7---7-7--7-7-7--7-7-7--|
E |-5-8--10---10-10---10-10---10-10-10---0-3-5---5-5--5-5—5--5-5-5--|

e |-----------------------------------------------|
B |-----------------------------------------------|
G |-----------------------------------------------|
D |-7----10-10-10-10-10-10-10--12-12-12-12-12-12--|
A |-7----10-10-10-10-10-10-10--12-12-12-12-12-12--|
E |-5----8--8--8--8--8--8--8---10-10-10-10-10-10--|

Play this during Sarah’s second verse up till 1.10


e |---------------------------------|
B |---------------------------------|
G |---------------------------------|
D |-2-5-7---7---7-7---7-7-7---7-7-7-|
A |-2-5-7---7---7-7---7-7-7---7-7-7-|
E |-0-3-5---5---5-5---5-5-5---5-5-5-|


e |-----------------------------------------------------------|
B |-----------------------------------------------------------|
G |-----------------------------------------------------------|
D |-10-10-10-10--12-12-12-12-----14-14-14-14-14-14-14-14-14-/-|
A |-10-10-10-10--12-12-12-12-----14-14-14-14-14-14-14-14-14-/-|
E |-8--8--8--8---10-10-10-10—X3--12-12-12-12-12-12-12-12-12-/-|

Play this ^ during Pre-Chorus and Chorus

*Repeat all of the above for the next set of verses and Chorus Till 3.00*


e |-------------------------------|
B |-------------------------------|
G |-------------------------------|
D |-2-5-7---7---7-7---7-7-7-------|
A |-2-5-7---7---7-7---7-7-7-------|
E |-0-3-5---5---5-5---5-5-5---X2--|


e |-----------------------------------------------------------------|
B |-----------------------------------------------------------------|
G |-----------------------------------------------------------------|
D |-7-10-12---12-12---12-12---12-12-12---2-5-7---7-7--7-7-7--7-7-7--|
A |-7-10-12---12-12---12-12---12-12-12---2-5-7---7-7--7-7-7--7-7-7--|
E |-5-8--10---10-10---10-10---10-10-10---0-3-5---5-5--5-5—5--5-5-5--|

e |-----------------------------------------------|
B |-----------------------------------------------|
G |-----------------------------------------------|
D |-7----10-10-10-10-10-10-10--12-12-12-12-12-12--|
A |-7----10-10-10-10-10-10-10--12-12-12-12-12-12--|
E |-5----8--8--8--8--8--8--8---10-10-10-10-10-10--|

e |--------------------------------|
B |--------------------------------|
G |--------------------------------|
D |-2---5---7---x-x-x-x-x----7-----|
A |-2---5---7---x-x-x-x-x----7-----|
E |-0---3---5---x-x-x-x-x----5-----|

Play this last bit in the outro, and (x) as many times as u want to.

Yet another Brilliant Riff by Ms Tucker, altho it doesn't sound quite as good without 
accompianing Organ part.  If u think its wrong, Email me heat_like_burning@hotmail.com. 
enjoy!!!
Tap to rate this tab
# A B C D E F G H I J K L M N O P Q R S T U V W X Y Z