Cadence - Beef And Cheddar With A Side Of Solicitation tab

"Beef and Cheddar With a Side of Solicitation"
Cadence

Off of Cadence's first album. Link to song:
http://www.youtube.com/watch?v=HYJsvghSJto

The lyrics are printed under the measures to help keep the timing. It
can be a bit tricky, so look at the Key at the bottom for help.
---------------------------------------------------------------------

Intro
            p p p p     p p   p     p p
D|-------|------------------------------------------|
A|-------|------------------------------------------|
F|-------|-------------------------------10-9-7-----|
C|-------|-----------7------9----10-------------9---|
G|-------|------------------------------------------|
C|--12\--|--7-7-7-7-----7-7---7-----7-7-------------|

   p p p p     p p    p     p p
D|----------------------------------------|
A|----------------------------------------|
F|-------------------------------5---3----|
C|----------10------9----7---------7---5--|
G|----------------------------------------|
C|-7-7-7-7-----7-7----7-----7-7-----------|

   p p p p     p p    p     p p
D|-----------------------------------------|
A|-----------------------------------------|
F|-------------------------------10-9-7----|
C|----------7------9-----10-------------9--|
G|-----------------------------------------|
C|-7-7-7-7-----7-7----7-----7-7------------|

   p p p p     p p    p      p p
D|------------------------------------|
A|------------------------------------|
F|------------------------------------|
C|----------10------9----7--------5*--|
G|------------------------------------|
C|-7-7-7-7-----7-7----7-----7-7-------|

   p p p p     p p    p     p p
D|-----------------------------------------|
A|-----------------------------------------|
F|-------------------------------10-9-7----|
C|----------7------9-----10-------------9--|
G|-----------------------------------------|
C|-7-7-7-7-----7-7----7-----7-7------------|

   p p p p     p p    p     p p
D|----------------------------------------|
A|----------------------------------------|
F|-------------------------------5---3----|
C|----------10------9----7---------7---5--|
G|----------------------------------------|
C|-7-7-7-7-----7-7----7-----7-7-----------|

   p p p p     p p    p     p p
D|-----------------------------------------|
A|-----------------------------------------|
F|-------------------------------10-9-7----|
C|----------7------9-----10-------------9--|
G|-----------------------------------------|
C|-7-7-7-7-----7-7----7-----7-7------------|

D|----------------------------------------|
A|----------------------------------------|
F|----------------------------------------|
C|----------10------9----7-------5---7----|
G|-------------------------------5---7----|
C|-7-7-7-7-----7-7----7-----7-7--5---7----|

Verse 1

   p p p p     p p    p     p p
D|-----------------------------------------|
A|-----------------------------------------|
F|-------------------------------10-9-7----|
C|----------7------9-----10-------------9--|
G|-----------------------------------------|
C|-7-7-7-7-----7-7----7-----7-7------------|
Are you content?

   p p p p     p p    p     p p
D|----------------------------------------|
A|----------------------------------------|
F|-------------------------------5---3----|
C|----------10------9----7---------7---5--|
G|----------------------------------------|
C|-7-7-7-7-----7-7----7-----7-7-----------|
Are you happy where you're at?

   p p p p     p p    p     p p
D|-----------------------------------------|
A|-----------------------------------------|
F|-------------------------------10-9-7----|
C|----------7------9-----10-------------9--|
G|-----------------------------------------|
C|-7-7-7-7-----7-7----7-----7-7------------|
Is this enough?

   p p p p     p p    p      p p
D|------------------------------------|
A|------------------------------------|
F|------------------------------------|
C|----------10------9----7--------5*--|
G|------------------------------------|
C|-7-7-7-7-----7-7----7-----7-7-------|
Will you settle with your

   p p p p     p p    p     p p
D|-----------------------------------------|
A|-----------------------------------------|
F|-------------------------------10-9-7----|
C|----------7------9-----10-------------9--|
G|-----------------------------------------|
C|-7-7-7-7-----7-7----7-----7-7------------|
Self?_______

   p p p p     p p    p     p p
D|----------------------------------------|
A|----------------------------------------|
F|-------------------------------5---3----|
C|----------10------9----7---------7---5--|
G|----------------------------------------|
C|-7-7-7-7-----7-7----7-----7-7-----------|

   p p p p     p p    p     p p
D|-----------------------------------------|
A|-----------------------------------------|
F|-------------------------------10-9-7----|
C|----------7------9-----10-------------9--|
G|-----------------------------------------|
C|-7-7-7-7-----7-7----7-----7-7------------|

D|----------------------------------------|
A|----------------------------------------|
F|----------------------------------------|
C|----------10------9----7-------5---7----|
G|-------------------------------5---7----|
C|-7-7-7-7-----7-7----7-----7-7--5---7----|

   p p p p     p p    p     p p
D|-----------------------------------------|
A|-----------------------------------------|
F|-------------------------------10-9-7----|
C|----------7------9-----10-------------9--|
G|-----------------------------------------|
C|-7-7-7-7-----7-7----7-----7-7------------|
Don't ever be afraid

   p p p p     p p    p     p p
D|----------------------------------------|
A|----------------------------------------|
F|-------------------------------5---3----|
C|----------10------9----7---------7---5--|
G|----------------------------------------|
C|-7-7-7-7-----7-7----7-----7-7-----------|
To say what's on your mind!

   p p p p     p p    p     p p
D|-----------------------------------------|
A|-----------------------------------------|
F|-------------------------------10-9-7----|
C|----------7------9-----10-------------9--|
G|-----------------------------------------|
C|-7-7-7-7-----7-7----7-----7-7------------|
This life we hold so dear might

D|----------------------------------------|
A|----------------------------------------|
F|----------------------------------------|
C|----------10------9----7-------5---7----|
G|-------------------------------5---7----|
C|-7-7-7-7-----7-7----7-----7-7--5---7----|
Not make it past to

Chorus 1
D|----------------------------------|
A|----------------------------------|
F|----------5-5-----7----7-7---7-7--|
C|-3---3----3-3-----5----5-5---5-5--|
G|-3---3----3-3-x-x-5----5-5---5-5--|
C|-3---3----3-3-x-x-5----5-5---5-5--|
Day____ Is a beautiful day to


              p p  p  p p  p   p p              p p  p  p p  p
D|---------------------------------------------------------------|
A|---------------------------------------------------------------|
F|-5h7p5----------------------------5h7p5------------------------|
C|-------7-5------------------------------7-5--------------------|
G|------------0-0--0--0-0--0---0-0--------------0-0--0--0-0--0---|
C|------------0-0--0--0-0--0---0-0--------------0-0--0--0-0--0---|
Die!

D|----------------------------------|
A|----------------------------------|
F|----------5-5-----7----7-7---7-7--|
C|-3---3----3-3-----5----5-5---5-5--|
G|-3---3----3-3-x-x-5----5-5---5-5--|
C|-3---3----3-3-x-x-5----5-5---5-5--|
Though tomorrow could be the best day of my

              p p  p  p p  p   p p              p p  p  p p
D|-----------------------------------------------------------------|
A|-----------------------------------------------------------------|
F|-5h7p5----------------------------5h7p5--------------------------|
C|-------7-5------------------------------7-5----------------------|
G|------------0-0--0--0-0--0---0-0--------------0-0--0--0-0--------|
C|------------0-0--0--0-0--0---0-0--------------0-0--0--0-0--/12\--|
Life!


Verse 2a
   p p p p     p p    p     p p
D|-----------------------------------------|
A|-----------------------------------------|
F|-------------------------------10-9-7----|
C|----------7------9-----10-------------9--|
G|-----------------------------------------|
C|-7-7-7-7-----7-7----7-----7-7------------|
So here's to hoping

   p p p p     p p    p     p p
D|----------------------------------------|
A|----------------------------------------|
F|-------------------------------5---3----|
C|----------10------9----7---------7---5--|
G|----------------------------------------|
C|-7-7-7-7-----7-7----7-----7-7-----------|
That you will wake up one

   p p p p     p p    p     p p
D|-----------------------------------------|
A|-----------------------------------------|
F|-------------------------------10-9-7----|
C|----------7------9-----10-------------9--|
G|-----------------------------------------|
C|-7-7-7-7-----7-7----7-----7-7------------|
Day

   p p p p     p p    p      p p
D|------------------------------------|
A|------------------------------------|
F|------------------------------------|
C|----------10------9----7--------5*--|
G|------------------------------------|
C|-7-7-7-7-----7-7----7-----7-7-------|

   p p p p     p p    p     p p
D|-----------------------------------------|
A|-----------------------------------------|
F|-------------------------------10-9-7----|
C|----------7------9-----10-------------9--|
G|-----------------------------------------|
C|-7-7-7-7-----7-7----7-----7-7------------|
Realizing__

   p p p p     p p    p     p p
D|----------------------------------------|
A|----------------------------------------|
F|-------------------------------5---3----|
C|----------10------9----7---------7---5--|
G|----------------------------------------|
C|-7-7-7-7-----7-7----7-----7-7-----------|
That your whole life is a


Guitar and Bass Break
   p p p p     p p    p     p p
D|-----------------------------------------|
A|-----------------------------------------|
F|-------------------------------10-9-7----|
C|----------7------9-----10-------------9--|
G|-----------------------------------------|
C|-7-7-7-7-----7-7----7-----7-7------------|
Waste!

   p p p p     p p    p      p p
D|------------------------------------|
A|------------------------------------|
F|------------------------------------|
C|----------10------9----7------------|
G|------------------------------------|
C|-7-7-7-7-----7-7----7-----7-7---5*--|

Verse 2b
   p p p p     p p    p     p p
D|-----------------------------------------|
A|-----------------------------------------|
F|-------------------------------10-9-7----|
C|----------7------9-----10-------------9--|
G|-----------------------------------------|
C|-7-7-7-7-----7-7----7-----7-7------------|
As you lay dying

   p p p p     p p    p     p p
D|----------------------------------------|
A|----------------------------------------|
F|-------------------------------5---3----|
C|----------10------9----7---------7---5--|
G|----------------------------------------|
C|-7-7-7-7-----7-7----7-----7-7-----------|
Would you regret your mistakes?

   p p p p     p p    p     p p
D|-----------------------------------------|
A|-----------------------------------------|
F|-------------------------------10-9-7----|
C|----------7------9-----10-------------9--|
G|-----------------------------------------|
C|-7-7-7-7-----7-7----7-----7-7------------|

   p p p p     p p    p      p p
D|------------------------------------|
A|------------------------------------|
F|------------------------------------|
C|----------10------9----7------------|
G|------------------------------------|
C|-7-7-7-7-----7-7----7-----7-7---5*--|

   p p p p     p p    p     p p
D|-----------------------------------------|
A|-----------------------------------------|
F|-------------------------------10-9-7----|
C|----------7------9-----10-------------9--|
G|-----------------------------------------|
C|-7-7-7-7-----7-7----7-----7-7------------|
At least you lived...

   p p p p     p p    p     p p
D|----------------------------------------|
A|----------------------------------------|
F|-------------------------------5---3----|
C|----------10------9----7---------7---5--|
G|----------------------------------------|
C|-7-7-7-7-----7-7----7-----7-7-----------|
At least you lived for today!___

   p p p p     p p    p     p p
D|-----------------------------------------|
A|-----------------------------------------|
F|-------------------------------10-9-7----|
C|----------7------9-----10-------------9--|
G|-----------------------------------------|
C|-7-7-7-7-----7-7----7-----7-7------------|
(Today)_____

D|---------------------------------------|
A|---------------------------------------|
F|-10h9h8h7-10h9h8h7-10h9h8h7-10h9h8h7---|
C|---------------------------------------|
G|---------------------------------------|
C|---------------------------------------|
(Today)____

Chorus 2
D|----------------------------------|
A|----------------------------------|
F|----------5-5-----7----7-7---7-7--|
C|-3---3----3-3-----5----5-5---5-5--|
G|-3---3----3-3-x-x-5----5-5---5-5--|
C|-3---3----3-3-x-x-5----5-5---5-5--|
Today____ Is a beautiful day to

              p p  p  p p  p   p p              p p  p  p p  p
D|---------------------------------------------------------------|
A|---------------------------------------------------------------|
F|-5h7p5----------------------------5h7p5------------------------|
C|-------7-5------------------------------7-5--------------------|
G|------------0-0--0--0-0--0---0-0--------------0-0--0--0-0--0---|
C|------------0-0--0--0-0--0---0-0--------------0-0--0--0-0--0---|
Die!

D|----------------------------------|
A|----------------------------------|
F|----------5-5-----7----7-7---7-7--|
C|-3---3----3-3-----5----5-5---5-5--|
G|-3---3----3-3-x-x-5----5-5---5-5--|
C|-3---3----3-3-x-x-5----5-5---5-5--|
Though tomorrow could be the best day of my

              p p  p  p p  p   p p              p p  p  p p
D|-----------------------------------------------------------------|
A|-----------------------------------------------------------------|
F|-5h7p5----------------------------5h7p5--------------------------|
C|-------7-5------------------------------7-5----------------------|
G|------------0-0--0--0-0--0---0-0--------------0-0--0--0-0--------|
C|------------0-0--0--0-0--0---0-0--------------0-0--0--0-0--/12\--|
Life!

Guitar Riff
   p p p p   p p   p   p p           p p p p   p p   p   p p
D|--------------------------------------------------------------------|
A|--------------------------------------------------------------------|
F|--------------------------------------------------------------------|
C|-------------------------7-5-4-----------------------------9-7-6----|
G|---------3-----5---3-----------5-----------5-----7---5-----------7--|
C|-3-3-3-3---3-3---3---3-3-----------5-5-5-5---5-5---5---5-5----------|

D|-----------------------|
A|-----------------------|
F|-----------------------|
C|-3--3-3--3--2--2-2--2--|
G|-3--3-3--3--2--2-2--2--|
C|-3--3-3--3--2--2-2--2--|

Bridge
  p p p p              p p p p
D|--------------------------------------|
A|----------7----7--7-----------6---6---|
F|---------10---10-10-----------9---9---|
C|--------------------------------------|
G|--------------------------------------|
C|-0-0-0-0--------------0-0-0-0---------|

   p p p p
D|-----------------------------------------------|
A|----------7--7--7--7---6--6--6--6--6--6--6--6--|
F|---------10-10-10-10---9--9--9--9--9--9--9--9--|
C|-----------------------------------------------|
G|-----------------------------------------------|
C|-0-0-0-0---------------------------------------|

  p p p p              p p p p
D|--------------------------------------|
A|----------7----7--7-----------6---6---|
F|---------10---10-10-----------9---9---|
C|--------------------------------------|
G|--------------------------------------|
C|-0-0-0-0--------------0-0-0-0---------|

   p p p p
D|-----------------------------------------------|
A|----------7--7--7--7---6--6--6--6--6--6--6--6--|
F|---------10-10-10-10---9--9--9--9--9--9--9--9--|
C|-----------------------------------------------|
G|-----------------------------------------------|
C|-0-0-0-0---------------------------------------|

D|--------------------------|
A|--------------------------|
F|--------5---5---5-5-------|
C|-3---3--3---3---3-3-------|
G|-3---3--3---3---3-3-x-x---|
C|-3---3--3---3---3-3-x-x---|
We can, we can see right through you

D|----------------------|
A|----------------------|
F|--------7---7---7-7---|
C|-5---5--5---5---5-5---|
G|-5---5--5---5---5-5---|
C|-5---5--5---5---5-5---|
We know why you do what you do!

  p p p p              p p p p
D|--------------------------------------|
A|----------7----7--7-----------6---6---|
F|---------10---10-10-----------9---9---|
C|--------------------------------------|
G|--------------------------------------|
C|-0-0-0-0--------------0-0-0-0---------|

   p p p p
D|-----------------------------------------------|
A|----------7--7--7--7---6--6--6--6--6--6--6--6--|
F|---------10-10-10-10---9--9--9--9--9--9--9--9--|
C|-----------------------------------------------|
G|-----------------------------------------------|
C|-0-0-0-0---------------------------------------|

D|--------------------------|
A|--------------------------|
F|--------5---5---5-5-------|
C|-3---3--3---3---3-3-------|
G|-3---3--3---3---3-3-x-x---|
C|-3---3--3---3---3-3-x-x---|
Just trying to f*cking please

D|----------------------|
A|----------------------|
F|--------7---7---7-7---|
C|-5---5--5---5---5-5---|
G|-5---5--5---5---5-5---|
C|-5---5--5---5---5-5---|
Take a number and go join society!

  p p p p              p p p p
D|--------------------------------------|
A|----------7----7--7-----------6---6---|
F|---------10---10-10-----------9---9---|
C|--------------------------------------|
G|--------------------------------------|
C|-0-0-0-0--------------0-0-0-0---------|

   p p p p
D|-----------------------------------------------|
A|----------7--7--7--7---6--6--6--6--6--6--6--6--|
F|---------10-10-10-10---9--9--9--9--9--9--9--9--|
C|-----------------------------------------------|
G|-----------------------------------------------|
C|-0-0-0-0---------------------------------------|

D|--------------------------|
A|--------------------------|
F|--------5---5---5-5-------|
C|-3---3--3---3---3-3-------|
G|-3---3--3---3---3-3-x-x---|
C|-3---3--3---3---3-3-x-x---|
We can, we can see right through you

D|----------------------|
A|----------------------|
F|--------7---7---7-7---|
C|-5---5--5---5---5-5---|
G|-5---5--5---5---5-5---|
C|-5---5--5---5---5-5---|
We know why you do what you do!

  p p p p              p p p p
D|--------------------------------------|
A|----------7----7--7-----------6---6---|
F|---------10---10-10-----------9---9---|
C|--------------------------------------|
G|--------------------------------------|
C|-0-0-0-0--------------0-0-0-0---------|

   p p p p
D|-----------------------------------------------|
A|----------7--7--7--7---6--6--6--6--6--6--6--6--|
F|---------10-10-10-10---9--9--9--9--9--9--9--9--|
C|-----------------------------------------------|
G|-----------------------------------------------|
C|-0-0-0-0---------------------------------------|

D|--------------------------|
A|--------------------------|
F|--------5---5---5-5-------|
C|-3---3--3---3---3-3-------|
G|-3---3--3---3---3-3-x-x---|
C|-3---3--3---3---3-3-x-x---|
Join us, and you will see

D|----------------------|
A|----------------------|
F|--------7---7---7-7---|
C|-5---5--5---5---5-5---|
G|-5---5--5---5---5-5---|
C|-5---5--5---5---5-5---|
This Cadence will lead society!

  p p p p              p p p p
D|--------------------------------------|
A|----------7----7--7-----------6---6---|
F|---------10---10-10-----------9---9---|
C|--------------------------------------|
G|--------------------------------------|
C|-0-0-0-0--------------0-0-0-0---------|

   p p p p
D|-----------------------------------------------|
A|----------7--7--7--7---6--6--6--6--6--6--6--6--|
F|---------10-10-10-10---9--9--9--9--9--9--9--9--|
C|-----------------------------------------------|
G|-----------------------------------------------|
C|-0-0-0-0---------------------------------------|

  p p p p              p p p p
D|--------------------------------------|
A|----------7----7--7-----------6---6---|
F|---------10---10-10-----------9---9---|
C|--------------------------------------|
G|--------------------------------------|
C|-0-0-0-0--------------0-0-0-0---------|

   p p p p
D|-----------------------------------------------|
A|----------7--7--7--7---6--6--6--6--6--6--6--6--|
F|---------10-10-10-10---9--9--9--9--9--9--9--9--|
C|-----------------------------------------------|
G|-----------------------------------------------|
C|-0-0-0-0---------------------------------------|

Slow Down
D|---------------|
A|---------------|
F|---------------|
C|-3--------2----|
G|-3--------2----|
C|-3--------2----|

D|--------------|
A|--------------|
F|--------------|
C|-0------------|
G|-0------------|
C|-1------------|


Acoustic Break (clean, palm muted)
D|----------------------------------|
A|----------------------------------|
F|-----5---3-----2-----2-----0---0--|
C|---5---5---5-----3-----3-2---3----|
G|-3-----------6-----5--------------|
C|----------------------------------|

D|------------------------------------|
A|------------------------------------|
F|-----5---3-----2-----2---------3-5--|
C|---5---5---5-----3-----3-2-3-5------|
G|-3-----------6-----5----------------|
C|------------------------------------|

D|----------------------------------|
A|----------------------------------|
F|-----5---3-----2-----2-----0---0--|
C|---5---5---5-----3-----3-2---3----|
G|-3-----------6-----5--------------|
C|----------------------------------|

D|--------------------------|
A|--------------------------|
F|-----5---3-----2----------|
C|---5---5---5-----3--------|
G|-3-----------6-----5-5~---|
C|--------------------------|

Heavy Break (distorted, semi-palm muted)
D|----------------------------------|
A|----------------------------------|
F|-----5---3-----2-----2-----0---0--|
C|---5---5---5-----3-----3-2---3----|
G|-3-----------6-----5--------------|
C|----------------------------------|

D|-----------------------------------|
A|-----------------------------------|
F|-----5---3-----2-----2-------3-5*--|
C|---5---5---5-----3-----3-2-5-------|
G|-3-----------6-----5---------------|
C|-----------------------------------|

D|----------------------------------|
A|----------------------------------|
F|-----5---3-----2-----2-----0---0--|
C|---5---5---5-----3-----3-2---3----|
G|-3-----------6-----5--------------|
C|----------------------------------|

D|--------------------------|
A|--------------------------|
F|-----5---3-----2----------|
C|---5---5---5-----3--------|
G|-3-----------6-----5-5*---|
C|--------------------------|

Guitar Solo (Use Wah)
D|-------------------------------------------------------------------------|
A|-------------------------------------------------------------------------|
F|-------------------------------------------------------------------------|
C|-7t-----9t-7t-9t-7t-9t-10t----9t-----7t-----9t-7t-9t-7t-9t-10t----9t-----|
G|-------------------------------------------------------------------------|
C|-------------------------------------------------------------------------|

D|-10t-----12t-10t-12t-10t-12t-13t----12t-----|
A|--------------------------------------------|
F|--------------------------------------------|
C|--------------------------------------------|
G|--------------------------------------------|
C|--------------------------------------------|

D|-10t-----12t-10t-12t-10t-12t-13t----12t-----|
A|--------------------------------------------|
F|--------------------------------------------|
C|--------------------------------------------|
G|--------------------------------------------|
C|--------------------------------------------|

D|-/17-15-13--------------------------------|
A|-----------15-13h15p13--------------------|
F|-----------------------13--12--10---------|
C|------------------------------------12~---|
G|------------------------------------------|
C|------------------------------------------|

D|-----------------------------------|
A|-----------------/18-17-15---------|
F|-13-12-10-9~---------------17b-----|
C|-----------------------------------|
G|-----------------------------------|
C|-----------------------------------|

Bass Break, play nothing

Guitar and Drums Join
   p p p p              p p p p
D|--------------------------------------|
A|----------7----7--7-----------6---6---|
F|---------10---10-10-----------9---9---|
C|--------------------------------------|
G|--------------------------------------|
C|-0-0-0-0--------------0-0-0-0---------|

   p p p p
D|-----------------------------------------------|
A|----------7--7--7--7---6--6--6--6--6--6--6--6--|
F|---------10-10-10-10---9--9--9--9--9--9--9--9--|
C|-----------------------------------------------|
G|-----------------------------------------------|
C|-0-0-0-0---------------------------------------|

   p p p p              p p p p
D|--------------------------------------|
A|----------7----7--7-----------6---6---|
F|---------10---10-10-----------9---9---|
C|--------------------------------------|
G|--------------------------------------|
C|-0-0-0-0--------------0-0-0-0---------|

   p p p p
D|-----------------------------------------------|
A|----------7--7--7--7---6--6--6--6--6--6--6--6--|
F|---------10-10-10-10---9--9--9--9--9--9--9--9--|
C|-----------------------------------------------|
G|-----------------------------------------------|
C|-0-0-0-0---------------------------------------|


Verse Riff Refrain
   p p p p     p p    p     p p
D|-----------------------------------------|
A|-----------------------------------------|
F|-------------------------------10-9-7----|
C|----------7------9-----10-------------9--|
G|-----------------------------------------|
C|-7-7-7-7-----7-7----7-----7-7------------|

   p p p p     p p    p     p p
D|----------------------------------------|
A|----------------------------------------|
F|-------------------------------5---3----|
C|----------10------9----7---------7---5--|
G|----------------------------------------|
C|-7-7-7-7-----7-7----7-----7-7-----------|

   p p p p     p p    p     p p
D|-----------------------------------------|
A|-----------------------------------------|
F|-------------------------------10-9-7----|
C|----------7------9-----10-------------9--|
G|-----------------------------------------|
C|-7-7-7-7-----7-7----7-----7-7------------|

   p p p p     p p    p     p p
D|------------------------------------|
A|------------------------------------|
F|------------------------------------|
C|----------10------9----7--------5*--|
G|------------------------------------|
C|-7-7-7-7-----7-7----7-----7-7-------|

Verse 3
   p p p p     p p    p     p p
D|-----------------------------------------|
A|-----------------------------------------|
F|-------------------------------10-9-7----|
C|----------7------9-----10-------------9--|
G|-----------------------------------------|
C|-7-7-7-7-----7-7----7-----7-7------------|
How can you say (that today!)

   p p p p     p p    p     p p
D|----------------------------------------|
A|----------------------------------------|
F|-------------------------------5---3----|
C|----------10------9----7---------7---5--|
G|----------------------------------------|
C|-7-7-7-7-----7-7----7-----7-7-----------|
Is best for your last breath?

D|-----------------------------------------|
A|-----------------------------------------|
F|-------------------------------10-9-7----|
C|----------7------9-----10-------------9--|
G|-----------------------------------------|
C|-7-7-7-7-----7-7----7-----7-7------------|
You'll never know (What

   p p p p     p p    p     p p
D|----------------------------------------|
A|----------------------------------------|
F|----------------------------------------|
C|----------10------9----7-------5---7----|
G|-------------------------------5---7----|
C|-7-7-7-7-----7-7----7-----7-7--5---7----|
Tomorrow holds)

   p p p p     p p    p     p p
D|-----------------------------------------|
A|-----------------------------------------|
F|-------------------------------10-9-7----|
C|----------7------9-----10-------------9--|
G|-----------------------------------------|
C|-7-7-7-7-----7-7----7-----7-7------------|
You'll never know (You'll never know!)

   p p p p     p p    p     p p
D|----------------------------------------|
A|----------------------------------------|
F|-------------------------------5---3----|
C|----------10------9----7---------7---5--|
G|----------------------------------------|
C|-7-7-7-7-----7-7----7-----7-7-----------|
Will you find your death?

   p p p p     p p    p     p p
D|-----------------------------------------|
A|-----------------------------------------|
F|-------------------------------10-9-7----|
C|----------7------9-----10-------------9--|
G|-----------------------------------------|
C|-7-7-7-7-----7-7----7-----7-7------------|
Can you tell me (that you're happy!)

   p p p p     p p    p     p p
D|----------------------------------------|
A|----------------------------------------|
F|----------------------------------------|
C|----------10------9----7-------5---7----|
G|-------------------------------5---7----|
C|-7-7-7-7-----7-7----7-----7-7--5---7----|
With what you've done with your(self!)

Chorus 3
D|----------------------------------|
A|----------------------------------|
F|----------5-5-----7----7-7---7-7--|
C|-3---3----3-3-----5----5-5---5-5--|
G|-3---3----3-3-x-x-5----5-5---5-5--|
C|-3---3----3-3-x-x-5----5-5---5-5--|
Day____ Is a beautiful day to

              p p  p  p p  p   p p              p p  p  p p  p
D|---------------------------------------------------------------|
A|---------------------------------------------------------------|
F|-5h7p5----------------------------5h7p5------------------------|
C|-------7-5------------------------------7-5--------------------|
G|------------0-0--0--0-0--0---0-0--------------0-0--0--0-0--0---|
C|------------0-0--0--0-0--0---0-0--------------0-0--0--0-0--0---|
Die!

D|----------------------------------|
A|----------------------------------|
F|----------5-5-----7----7-7---7-7--|
C|-3---3----3-3-----5----5-5---5-5--|
G|-3---3----3-3-x-x-5----5-5---5-5--|
C|-3---3----3-3-x-x-5----5-5---5-5--|
Though tomorrow could be the best day of my
              p p  p  p p  p   p p              p p  p  p p  p
D|--------------------------------------------------------------|
A|--------------------------------------------------------------|
F|-5h7p5----------------------------5h7p5-----------------------|
C|-------7-5------------------------------7-5-------------------|
G|------------0-0--0--0-0--0---0-0--------------0-0--0--0-0--0--|
C|------------0-0--0--0-0--0---0-0--------------0-0--0--0-0--0--|
Life!

D|----------------------------------|
A|----------------------------------|
F|----------5-5-----7----7-7---7-7--|
C|-3---3----3-3-----5----5-5---5-5--|
G|-3---3----3-3-x-x-5----5-5---5-5--|
C|-3---3----3-3-x-x-5----5-5---5-5--|
Today____ Is a beautiful day to

              p p  p  p p  p   p p              p p  p  p p  p
D|---------------------------------------------------------------|
A|---------------------------------------------------------------|
F|-5h7p5----------------------------5h7p5------------------------|
C|-------7-5------------------------------7-5--------------------|
G|------------0-0--0--0-0--0---0-0--------------0-0--0--0-0--0---|
C|------------0-0--0--0-0--0---0-0--------------0-0--0--0-0--0---|
Die!

Outro         p p  p  p p  p p  p p  p  p p  p
D|----------------------------------------------|
A|----------------------------------------------|
F|-5h7p5----------------------------------------|
C|-------7-5------------------------------------|
G|------------0-0--0--0-0--0-0--0-0--0--0-0--0--|
C|------------0-0--0--0-0--0-0--0-0--0--0-0--0--|

   p p  p  p p   p  p p  p p  p
D|-------------------------------|
A|-------------------------------|
F|-------------------------------|
C|-------------------------------|
G|-0-0--0--0-0---0--0-0--0-0--0--|
C|-0-0--0--0-0---0--0-0--0-0--0--|

Band page links:
http://www.facebook.com/True.Cadence
http://www.myspace.com/truecadence

Key
===
b - bend
/ - slide up
\ - slide down
h - hammer-on
p - pull-off
p (above tab lines) - palm mute
t - tremolo pick
~ - vibrato
* - pinch harmonic
Tap to rate this tab
 
# A B C D E F G H I J K L M N O P Q R S T U V W X Y Z