Song name
# A B C D E F G H I J K L M N O P Q R S T U V W X Y Z

Cadet - Nobody tab

----------------------------------------------------------------------------
			     NOBODY - Cadet
----------------------------------------------------------------------------
Tabbed by: no_one_is_in_the_house@hotmail.com
Tuning: EADGBe


Intro/Verse (Acoustic)
   Bm              D               G               E5       F#5
e|-2-2-xxxx-2-22---5-5-xxxx-5-55---3-3-xxxx-3-33--------------------|
B|-3-3-xxxx-3-33---7-7-xxxx-7-77---3-3-xxxx-3-33--------------------|
G|-4-4-xxxx-4-44---7-7-xxxx-7-77---4-4-xxxx-4-44--------------------|
D|-4-4-xxxx-4-44---7-7-xxxx-7-77---5-5-xxxx-5-55---2-2-xxxx-4-44----|
A|-2-2-xxxx-2-22---5-5-xxxx-5-55---5-5-xxxx-5-55---2-2-xxxx-4-44----|
E|---------------------------------3-3-xxxx-3-33---0-0-xxxx-2-22----|

Verse Fill (Distortion)
e|---2--2-3--2------2--2-3--2-------------|
B|-------------5-3-------------5--0h3-----|
G|----------------------------------------|
D|----------------------------------------|
A|----------------------------------------|
E|----------------------------------------|

Pre-chorus (Distortion)
   B      A      E     D 
e|-------------------------------|
B|-------------------------------|
G|-4------14-----9-----7---------|
D|-x-X16--x--X8--x-X4--x-X4------|
A|-2------12-----7-----5---------|
E|-------------------------------|

Chorus (Distortion)
    B5         D5         G5         E5   F#5
e|-------------------------------------------------|
B|-------------------------------------------------|
G|--44444444---77777777----------------------------|
D|--44444444---77777777---55555555---2222-4444-----|
A|--22222222---55555555---55555555---2222-4444-----|
E|------------------------33333333---0000-2222-----|

Bridge/Funky Psychodelic Breakdown of Awesomeness (Distortion)
   e|------------------------------------------------------|
   B|------------------------------------------------------|
   G|------------------------------------------------------|
   D|------------------------------------------------------|
   A|---------------5-----7\----------5---------4\---------|
   E|---7-7-7-x-5-x---5-5------3--3-3---3-2h3p2------------|

Final Pre-chorus (Distortion)
      G5              G5              G5
   e|-------------------------------------------------------------------|
   B|-------------------------------------------------------------------|
   G|-------------------------------------------------------------------|
   D|-5-5-5-----------5-5-5-----------5-5-5-----------------------------|
   A|-5-5-5-4-4-4-5-5-5-5-5-4-4-4-2-2-5-5-5-4-4-4-5-5-7-7-7-5-5-5-4-4---|
   E|-3-3-3-----------3-3-3-----------3-3-3-----------------------------|
p.m.  . . .           . . .           . . . 

| /  slide up
| \  slide down
| h  hammer-on
| p  pull-off
| ~  vibrato
| +  harmonic
| x  Mute note
============================================================================
Tap to rate this tab
# A B C D E F G H I J K L M N O P Q R S T U V W X Y Z