Song name
# A B C D E F G H I J K L M N O P Q R S T U V W X Y Z

Cadet - God Man tab

Hey I am Lance ,15 years old, and this is my first tab. I was searching for Cadet and I 
I saw they didnt have any Cadet tabs for you lovers. So enjoy to your best and any 
comments or corrections.
Ren-goku123@hotmail.com
Jesus rocks!!

Intro/Interlude
e-------------------------------------|
B-------------------------------------|
G-4-4-4-4-8-8-8-8-6-6-6-6-11-11-11-11-|
D-2-2-2-2-8-6-6-6-6-6-6-6-11-11-11-11-|
A-2-2-2-2-6-6-6-6-4-4-4-4--9--9--9--9-|
E-------------------------------------|

Verse
e|----------------------------------------------------|
B|----------------------------------------------------|
G|-4-x-x-x-x-4-8-x-x-x-x-8-6-x-x-x-x-6-11-11-11-11-11-|
D|-4-x-x-x-x-4-8-x-x-x-x-8-6-x-x-x-x-6-11-11-11-11-11-|
A|-2-x-x-x-x-2-6-x-x-x-x-6-4-x-x-x-x-4-9--9--9--9--9--|
E|----------------------------------------------------|
x=Palm mute
Chorus:
e|-------------------------------------------------------|
B|-------------------------------------------------------|
G|-4-4-4-4-4-4-------------11-11-11-11-11-11-8-8-8-8-8-8-|
D|-4-4-4-4-4-4-2-2-2-2-2-2-11-11-11-11-11-11-8-8-8-8-8-8-|
A|-2-2-2-2-2-2-2-2-2-2-2-2-9--9--9--9--9--9--6-6-6-6-6-6-|
E|-------------0-0-0-0-0-0-------------------------------|

e|---------------------------------------------|
B|---------------------------------------------|(Chorus outro)
G|-------------6-6-6-6-6-6---------------------|Instead of 442 power chord
D|-6-6-6-6-6-6-6-6-6-6-6-6-8-8-8-8-8-8-2-2-4-4-|11
A|-6-6-6-6-6-6-4-4-4-4-4-4-8-8-8-8-8-8-2-2-4-4-|11
E|-4-4-4-4-4-4-------------6-6-6-6-6-6-0-0-2-2-|9

Song Order
Intro(x2)
Verse(x4)
Chorus(x2)
Interlude(x2)
Verse(x4)
Chorus(x2)
Solo break
Chorus end(x2)
Tap to rate this tab
# A B C D E F G H I J K L M N O P Q R S T U V W X Y Z