Song name
# A B C D E F G H I J K L M N O P Q R S T U V W X Y Z

Cadillac Don J-money - Peanut Butter And Jelly tab

----------------------------------------------------------------------------
			     Peanut Butter and Jelly - Cadillac Don
----------------------------------------------------------------------------
Tabbed by: Nick Yates
Email: yates119@yahoo.com

Tuning: Drop D (DADGBe)

RAP VERSION!
e|--------------------------------------------------------------------------|
B|--------------------------------------------------------------------------|
G|--------------------------------------------------------------------------|
D|------6-----------------6--------------------6----------------------------|
A|---------6--7--4--6--------6--7--4--6-----------6--7--4--6----------------|
D|---6-----------------6-----------------6-6-6------------------------------|

ROCK VERISON!
e|--------------------------------------------------------------------------|
B|--------------------------------------------------------------------------|
G|--------------------------------------------------------------------------|
D|---6--6-----------------6--6----------------6-6-6--6----------------------|
A|---6-----6--7--4--6~~~--6-----6--7--4--6~~--6-6-6-----6--7--4--6~~~-------|
D|---6--------------------6-------------------6-6-6-------------------------|

| /  slide up
| \  slide down
| h  hammer-on
| p  pull-off
| ~  vibrato
| +  harmonic
| x  Mute note
===============================================================================

http://www.myspace.com/cadillacdon
Tap to rate this tab
# A B C D E F G H I J K L M N O P Q R S T U V W X Y Z