Cady Groves - Like A Soldier tab

It took me a while but Idid it by ear and it sounds pretty good to me.
Verse
E|-----------------------------|
B|-----9--9-----7--7-----2--2--|
G|-----9--9-----7--7-----2--2--|
D|-----------------------------|
A|--7--------5--------0--------|
E|-----------------------------|


Chorus
E|-------------------|
B|--2--2--7--7--9--9-|
G|--2--2--7--7--9--9-|
D|-------------------|
A|--0--0--5--5--7--7-|
E|-------------------|
Tap to rate this tab
 
# A B C D E F G H I J K L M N O P Q R S T U V W X Y Z