Song name
# A B C D E F G H I J K L M N O P Q R S T U V W X Y Z

Cady Groves - Like A Soldier tab

Cady Groves Tabs

Watch the tutorial first then look at the tabs instead of listening to the song while 
following along. Since this is figured out by ear it's not as musically accurate as I 
wanted it to be.  The fingering might not be correct but it's better than nothing.

http://www.youtube.com/watch?v=neFZjI-h-5o

Intro/Verses:
e --------------------------------------------------------------------------|
B ---10--10---10--10-----3----3-----3----3----5----5---5----5---2--2--2--2--|
G ----9---9----9---9-----2----2-----2----2----6----6---6----6---2--2--2--2--|
D --------------------------------------------------------------------------|
A -9----9----9----9----2---2-----2-----2----7----7----7---7---0--0--0--0----|
E --------------------------------------------------------------------------|
Refrain:
		     And my love will be...

e -----------------------------|
B -----10------10-----9-----13-|
G -----9-------9------9-----12-|
D -----------------------------|
A --9------9-------7--------12-|
E -----------------------------|


Chorus:

e ---0---------0------------X------------X-----------X-----------X----4---x-|
B ---2---------2------------7------------9-----------10--------10-----4---4-|
G ---2---------2------------7------------9-----------9----------9-----4---4-|
D ---0---------0------------7------------9-----------0----------0-----4---4-|
A ---0---------0------------X------------X-----------9----------9-----X---x-|
E ---0---------0------------7------------9-----------0----------0-----4---4-|




Bridge:
     It's not war that I was after....

e -X------------X-----------X----------4---|
B -7------------9-----------10---------4---|
G -7------------9-----------9----------4---|
D -7------------9-----------0----------4---|
A -X------------X-----------9----------X---|
E -7------------9-----------0----------4---|
Tap to rate this tab
 
# A B C D E F G H I J K L M N O P Q R S T U V W X Y Z