Song name
# A B C D E F G H I J K L M N O P Q R S T U V W X Y Z

Caesars Palace - Only You tab

                   "Only You"
                  Caesars Palace


  "5" bakom ackorden betyder att det ?r powerackord.


 Intro/refr?ng:
           F#5          C#5             E5        B5
-|--------------------------------------------------------|
-|-------2---------------------------2----------2---------|
-|---2-4---4-4---2-4--2-4-4-------2-4--4-4--2-4-----------|
-|--4----------------------------4----------------4-4-----|
-|--------------------------------------------------------|
-|--------------------------------------------------------|


 Vers:
       F#m         C#m          A            B
-|-----2-X-2-------4-X-4--------5-X-5--------7-X-7--------|
-|-----2-X-2-------4 X-5--------5-X-5--------7-X-7--------|
-|-----2-X-2-------6-X-6--------6-X-6--------8-X-8--------|
-|-----4-X-4-------6-X-6--------7-X-7--------9-X-9--------|
-|-----4-X-4-------4-X-6--------7-X-7--------9-X-9--------|
-|-----2-X-2--------------------5-X-5--------7-X-7--------|
    Baby you got ears just like dumbo it's so sweet...

 Brygga:
        B5        F#5                  B5       F#5
-|-------2----------2-------------------2--------2--------|
-|------3----------2-------------------3--------2---------|
-|-----4----------2-------------------4--------2----------|
-|----4----------4-------------------4--------4-----------|
-|--------------------------------------------------------|
-|--------------------------------------------------------|
   Only you can reatch my heart, only you and no one else


  Sen b?rjar refr?ngen som ?r likadan som introt
Tap to rate this tab
# A B C D E F G H I J K L M N O P Q R S T U V W X Y Z