Song name
# A B C D E F G H I J K L M N O P Q R S T U V W X Y Z

Caesars - Sort It Out tab

Caesars
Sort It Out
Youth is Wasted on the Young/39 Minutes of Bliss (In an Otherwise Meaningless World)

Tuning: Standard

Intro pt 1 - Guitars 1 & 2 (I reccomend you look at the notes at the bottom to see 
some details you might want to know)
e|---------------0--------------0------------------0-------------0----|
B|--------3----3----------3-------3---------3----3----------3------3--|
G|------4----4----------4----4------------4----4----------4----4------| x4
D|----4---------------4-----------------4---------------4-------------|
A|--2---------------5-----------------0-------------------------------|
E|----------------------------------------------------3---------------|

Intro pt 1 - Guitar 3 (on a piano)
e|-----10----12------10----12------10----10-----10---10--|
B|--10----10------10----10------10----10------8----8-----|
G|-------------------------------------------------------| x4
D|-------------------------------------------------------|
A|-------------------------------------------------------|
E|-------------------------------------------------------|

Intro pt 2 - Guitar 1
e|--------------------------------------------------------------------|
B|--------------------------------------------------------------------|
G|----------------4---------------7---------------2-------------------| x2
D|------4---2-4---------7---5-7---------2---0-2--------------------3--|
A|--2-2---2-----2---5-5---5-----5---0-0---0-----0--------5---3-5------|
E|---------------------------------------------------3-3---3-----3----|

Intro pt 2 - Guitar 2
e|-------------------------------------------------------------------|
B|-------------------------------------------------------------------|
G|-------------------------------------------------------------------| x2
D|--4-4-4-4-4-4-4-4-7-7-7-7-7-7-7-7----------------------------------|
A|--2-2-2-2-2-2-2-2-5-5-5-5-5-5-5-5-7-7-7-7-7-7-7-7-5-5-5-5-5-5-5-5--|
E|----------------------------------5-5-5-5-5-5-5-5-3-3-3-3-3-3-3-3--|

Played on the keyboard a few times throughout the song.
e|--14------10----------------|
B|------------------8------6--|
G|----------------------------| 
D|----------------------------|
A|----------------------------|
E|----------------------------|

Verse 1 - Guitar 1
e|--------------------------------------------------------------------|
B|--------------------------------------------------------------------|
G|----------------4---------------7---------------2-------------------| x4
D|------4---2-4---------7---5-7---------2---0-2--------------------3--|
A|--2-2---2-----2---5-5---5-----5---0-0---0-----0--------5---3-5------|
E|---------------------------------------------------3-3---3-----3----|

Verse 1 - Guitar 2
e|-------------------------------------------------------------------|
B|-------------------------------------------------------------------|
G|-------------------------------------------------------------------| x4
D|--4-4-4-4-4-4-4-4-7-7-7-7-7-7-7-7----------------------------------|
A|--2-2-2-2-2-2-2-2-5-5-5-5-5-5-5-5-7-7-7-7-7-7-7-7-5-5-5-5-5-5-5-5--|
E|----------------------------------5-5-5-5-5-5-5-5-3-3-3-3-3-3-3-3--|

Chorus 1 - Guitar 1
e|--0--3----0----3----2----2--|
B|--0--3----0----3----2----2--|
G|--0--5----0----3----2----4--| x2
D|--2--5----2----5----4----4--|
A|--2--3----2----5----4----2--|
E|--0--3----0----3----2----2--|

Chorus 1 - Guitar 2
e|------------------------------------------------------------------|
B|------------------------------------------------------------------|
G|--4-4-4-4-4-4-4-4-------------------------------------------------| x2
D|--4-4-4-4-4-4-4-4-5-5-5-5-5-5-5-5-4-4-4-4-4-4-4-4-4-4-4-4-4-4-4-4-|
A|--2-2-2-2-2-2-2-2-5-5-5-5-5-5-5-5-4-4-4-4-4-4-4-4-4-4-4-4-4-4-4-4-|
E|------------------3-3-3-3-3-3-3-3-2-2-2-2-2-2-2-2-2-2-2-2-2-2-2-2-|

Back to this stuff after the chorus.

Guitar 1
e|--------------------------------------------------------------------|
B|--------------------------------------------------------------------|
G|----------------4---------------7---------------2-------------------| x2
D|------4---2-4---------7---5-7---------2---0-2--------------------3--|
A|--2-2---2-----2---5-5---5-----5---0-0---0-----0--------5---3-5------|
E|---------------------------------------------------3-3---3-----3----|

Guitar 2
e|-------------------------------------------------------------------|
B|-------------------------------------------------------------------|
G|-------------------------------------------------------------------| x2
D|--4-4-4-4-4-4-4-4-7-7-7-7-7-7-7-7----------------------------------|
A|--2-2-2-2-2-2-2-2-5-5-5-5-5-5-5-5-7-7-7-7-7-7-7-7-5-5-5-5-5-5-5-5--|
E|----------------------------------5-5-5-5-5-5-5-5-3-3-3-3-3-3-3-3--|

Verse 2 - Guitar 1
e|--------------------------------------------------------------------|
B|--------------------------------------------------------------------|
G|----------------4---------------7---------------2-------------------| x4
D|------4---2-4---------7---5-7---------2---0-2--------------------3--|
A|--2-2---2-----2---5-5---5-----5---0-0---0-----0--------5---3-5------|
E|---------------------------------------------------3-3---3-----3----|

Verse 2- Guitar 2 
e|-------------------------------------------------------------------|
B|-------------------------------------------------------------------|
G|-------------------------------------------------------------------| x4
D|--4-4-4-4-4-4-4-4-7-7-7-7-7-7-7-7----------------------------------|
A|--2-2-2-2-2-2-2-2-5-5-5-5-5-5-5-5-7-7-7-7-7-7-7-7-5-5-5-5-5-5-5-5--|
E|----------------------------------5-5-5-5-5-5-5-5-3-3-3-3-3-3-3-3--|

Chorus 2 - Guitar 1
e|--0--3----0----3----2----2--|
B|--0--3----0----3----2----2--|
G|--0--5----0----3----2----4--| x4
D|--2--5----2----5----4----4--|
A|--2--3----2----5----4----2--|
E|--0--3----0----3----2----2--|

Chorus 2 - Guitar 2
e|------------------------------------------------------------------|
B|------------------------------------------------------------------|
G|--4-4-4-4-4-4-4-4-------------------------------------------------| x4
D|--4-4-4-4-4-4-4-4-5-5-5-5-5-5-5-5-4-4-4-4-4-4-4-4-4-4-4-4-4-4-4-4-|
A|--2-2-2-2-2-2-2-2-5-5-5-5-5-5-5-5-4-4-4-4-4-4-4-4-4-4-4-4-4-4-4-4-|
E|------------------3-3-3-3-3-3-3-3-2-2-2-2-2-2-2-2-2-2-2-2-2-2-2-2-|

Bridge (on a keyboard) Also played a few times during the below part.
e|--14------10----------------|
B|------------------8------6--|
G|----------------------------| 
D|----------------------------|
A|----------------------------|
E|----------------------------|

Back to this

Guitar 1
e|--------------------------------------------------------------------|
B|--------------------------------------------------------------------|
G|----------------4---------------7---------------2-------------------| x2
D|------4---2-4---------7---5-7---------2---0-2--------------------3--|
A|--2-2---2-----2---5-5---5-----5---0-0---0-----0--------5---3-5------|
E|---------------------------------------------------3-3---3-----3----|

Guitar 2
e|-------------------------------------------------------------------|
B|-------------------------------------------------------------------|
G|-------------------------------------------------------------------| x2
D|--4-4-4-4-4-4-4-4-7-7-7-7-7-7-7-7----------------------------------|
A|--2-2-2-2-2-2-2-2-5-5-5-5-5-5-5-5-7-7-7-7-7-7-7-7-5-5-5-5-5-5-5-5--|
E|----------------------------------5-5-5-5-5-5-5-5-3-3-3-3-3-3-3-3--|

Chorus 3 - Guitar 1
e|--0--3----0----3----2----2--|
B|--0--3----0----3----2----2--|
G|--0--5----0----3----2----4--| x6
D|--2--5----2----5----4----4--| 
A|--2--3----2----5----4----2--|
E|--0--3----0----3----2----2--|

Chorus 3 - Guitar 2
e|------------------------------------------------------------------|
B|------------------------------------------------------------------|
G|--4-4-4-4-4-4-4-4-------------------------------------------------| x6
D|--4-4-4-4-4-4-4-4-5-5-5-5-5-5-5-5-4-4-4-4-4-4-4-4-4-4-4-4-4-4-4-4-|
A|--2-2-2-2-2-2-2-2-5-5-5-5-5-5-5-5-4-4-4-4-4-4-4-4-4-4-4-4-4-4-4-4-|
E|------------------3-3-3-3-3-3-3-3-2-2-2-2-2-2-2-2-2-2-2-2-2-2-2-2-|

Outro - Guitars 1 & 2 (play slower and fade out towards the end)
e|-------------0------------------0--------------0-----------------0--|
B|--------3------3--------3-----3-----------3------3--------3----3----|
G|------4----4----------4----4------------4----4----------4----4------| x4
D|----4---------------4-----------------4---------------4-------------|
A|--2---------------5-----------------0-------------------------------|
E|----------------------------------------------------3---------------|

Notes:  I didn't include a few tiny variations in intro pt 1 and the outro for 
guitars 1 and 2 since it's a waste of space.

Intro pt 1 and the outro aren't played the same if you look or listen closely.

In intro pt 1 and the outro, guitar 1 is acoustic.

That's all. If you've got any questions or comments then give me a message.
Tap to rate this tab
# A B C D E F G H I J K L M N O P Q R S T U V W X Y Z