Guitaretab - guitar tabs
Song name
# A B C D E F G H I J K L M N O P Q R S T U V W X Y Z

Cafe Del Mar - Northern Lights tab

Artist: Lux
Song: 	Northern Lights
Album:	Cafe del Mar volume 7 (TRACK 1)

e----------------|----------------|
B----------------|----------------|
G--------0-------|--------0-------|
D------4---4-----|------4---4-----|
A----5-------5---|----5-------5---|
E--3-------------|--3-------------|

[ Tab from: http://www.guitaretab.com/c/cafe-del-mar/30063.html ]
e----------------|e----------------|
B----------------|B----------------|
G------4---------|G------4---------|
D----5---5-------|D----5---5-------|
A--3-------------|A--3-------------|
E----------------|E----------------|

the WHOLE song play this over and over again, GREAT chillout music
or even better for crashing... :)
Enjoy! :)
                                                      'Sean

questions or comments: email me at zpeed@rocketmail.com
Northern Lights chords by Cafe Del Mar