Song name
# A B C D E F G H I J K L M N O P Q R S T U V W X Y Z

Cafe Tacuba - El Punal Y El Corazon tab

I transferred the first part to the guitar and it sounds exactly like it. Listen to the 
to get it right.

Intro:

e----------------------------------------------------------------------------|
B----------------------------------------------------------------------------|
G----------------------------------------------------------------------------|
D-------9--9--10--9--------9--9--10--9--10--9---------9--9--10--9--------9---|
A--7--10---------------6--9----------------------7--10---------------6--9----|
E----------------------------------------------------------------------------|

Verse:

e----------------------------------------------------------------------------|
B----------------------------------------------------------------------------|
G----------------------------------------------------------------------------|
D----------------------------------------------------------------------------|
A-------9---------9-10-9-----9-------9-10-9-10-9------9---------9-10-9-----9-|
E--7-10---10-7-10--------6-9---9-6-9-------------7-10---10-7-10--------6-9---|

If you want to you can move into these chords and change them up yourself. If the quick 
with the chords is hard, then slide your fingers and strum once.

Chords:
                                                     Repeat first part, then
e----------------------------------------------------------------------------|
B----------------------------------------------------------------------------|
G-----------------8-9--8-----------------8-9--8-9--8------8------------------|
D-9-x-9-9-x-9-9-x-9-10-9-9-x-9-9-x-9-9-x-9-10-9-10-9-8-11-9------------------|
A-7-x-7-7-x-7-7-x--------6-x-6-6-x-6-6-x-------------6--9--------------------|
E----------------------------------------------------------------------------|
Tap to rate this tab
 
# A B C D E F G H I J K L M N O P Q R S T U V W X Y Z