Song name
# A B C D E F G H I J K L M N O P Q R S T U V W X Y Z

Cafe Tacuba - Olita Del Altamar tab

Canción/Song: Olita del Altamar
Artist/Artista: Cafe Tacuba
Album: "El Objeto Antes Llamado Disco

Tabbed by

Disfruten la tablatura de esta hermosa canción!/Enjoy the tab of this beautiful song!

Intro:
|--------------------------------------------------15-12----------------------|
|---------------------------12-15-12--12-12--------------15-12----------------|
|------------------11-12--------------------14-12--------------14--12---------|
|-14--14--14-12-14----------------------------------------------------14-12---|
|-----------------------------------------------------------------------------|
|-----------------------------------------------------------------------------|


|---------------|
|---------------|
|--12-----------|
|14--14---14----|
|---------------|
|---------------|
 En este verso la guitarra no suena.../In this Verse the guitar doesn´t play...

Ay olita del altamar
dime si algún día tu volverás
Ay olita del altamar
dime si algún día tu volverás



Coro/Chorus: En este coro dejen sonar los acordes.../Let the chords ring...

Ay olita del altamar Ay olita del altamar, dime si algun dia regresaras.
|----------------3---------------------3---------0------------------0-------|
|----------------0---------------------0---------1------------------0-------|
|----------------0---------------------0---------2------------------0-------|
|----------------0 --------------------0---------2------------------2-------|
|----------------2---------------------2---------0------------------2-------|
|----------------3---------------------3----------------------------0-------|

Ay olita del altamar Ay olita del altamar, dime si algún día tu volverás.
|----------------3--------------------3----------0------------------0-------|
|----------------0--------------------0----------1------------------0-------|
|----------------0--------------------0----------2------------------0-------|
|----------------0--------------------0----------2------------------2-------|
|----------------2--------------------2----------0------------------2-------|
|----------------3--------------------3-----------------------------0-------|

Verso 2 (aquí se utilizan variaciones de los acordes Em G Am y Bm


  Arenita de mi playa,       si algún día con la espuma del mar

|--7----7----7------3---3---3-------5---5-----------7---------7----7----7-|
|--8----8----8------3---3---3-------5---5-----------7---------8----8----8-|
|--9----9----9------4---4---4-------5---5-----------7---------9----9----9-|
|--9----9----9------5---5---5-------7---7-----------9---------9----9----9-|
|--7----7----7------5---5---5-------7---7-----------9---------7----7----7-|
|-------------------3---3---3-------5---5-----------7---------------------|


  Arenita de mi playa,       si algún día la miras regresar

|--7----7----7------3---3---3-------5---5-----------7---------7----7----7|
|--8----8----8------3---3---3-------5---5-----------7---------8----8----8|
|--9----9----9------4---4---4-------5---5-----------7---------9----9----9|
|--9----9----9------5---5---5-------7---7-----------9---------9----9----9|
|--7----7----7------5---5---5-------7---7-----------9---------7----7----7|
|-------------------3---3---3-------5---5-----------7--------------------|


  Caminito de la vida,      mira que me has traído hasta acá

|--7----7----7------3---3---3-------5---5-----------7---------7----7----7|
|--8----8----8------3---3---3-------5---5-----------7---------8----8----8|
|--9----9----9------4---4---4-------5---5-----------7---------9----9----9|
|--9----9----9------5---5---5-------7---7-----------9---------9----9----9|
|--7----7----7------5---5---5-------7---7-----------9---------7----7----7|
|-------------------3---3---3-------5---5-----------7--------------------|

  Caminito de mi vida,        hasta donde tu me llevarás.

|--7----7----7------3---3---3-------5---5-----------7---------7----7----7|
|--8----8----8------3---3---3-------5---5-----------7---------8----8----8|
|--9----9----9------4---4---4-------5---5-----------7---------9----9----9|
|--9----9----9------5---5---5-------7---7-----------9---------9----9----9|
|--7----7----7------5---5---5-------7---7-----------9---------7----7----7|
|-------------------3---3---3-------5---5-----------7--------------------|

Tercer coro/Third  chorus (No estoy muy seguro de este, si prefieren, pueden tocarlo 
como el primero/I´m not pretty sure about this, if you want, you can play like the first one)


Ay olita del altamar,  ay olita del altamar si en mi corazón tú rompieras

|3----3----3---5---7----3----3----3---5---7----7----7----7---7---5--5--|
|3----3----3---5---8----3----3----3---5---8----8----8----8---8---5--5--|
|4----4----4---5---9----4----4----4---5---9----9----9----9---9---5--5--|
|5----5----5---7---9----5----5----5---7---9----9----9----9---9---7--7--|
|5----5----5---7---7----5----5----5---7---7----7----7----7---7---7--7--|
|3----3----3---7--------3----3----3---5--------------------------5--5--|


Se repite el coro (con diferente lírica)



|--------------------------------------------------15-12----------------------|
|---------------------------12-15-12--12-12--------------15-12----------------|
|------------------11-12--------------------14-12--------------14--12---------|
|-14--14--14-12-14----------------------------------------------------14-12---|
|-----------------------------------------------------------------------------|
|-----------------------------------------------------------------------------|


|---------------|
|---------------|
|--12-----------|
|14--14---14----|
|---------------|
|---------------|

Puente:

  Ay olita del altamar     Con el viento yo fui y te busque
|-0----------------3----------------0--------------------0------------------|
|-0----------------0----------------1--------------------0------------------|
|-0----------------0----------------2--------------------0------------------|
|-2----------------0----------------2--------------------2------------------|
|-2----------------2----------------0--------------------2------------------|
|-0----------------3-------------------------------------0------------------|

  Ay olita del altamar     Con el tiempo después naufrague
|-0-----------------3---------------0-------------------0-------------------|
|-0-----------------0---------------1-------------------0-------------------|
|-0-----------------0---------------2-------------------0-------------------|
|-2-----------------0---------------2-------------------2-------------------|
|-2-----------------2---------------0-------------------2-------------------|
|-0-----------------3-----------------------------------0-------------------|

Coro 3:

Ay olita del altamar Ay olita del altamar, dime si algun dia regresaras.
|----------------3---------------------3---------0------------------0-------|
|----------------0---------------------0---------1------------------0-------|
|----------------0---------------------0---------2------------------0-------|
|----------------0 --------------------0---------2------------------2-------|
|----------------2---------------------2---------0------------------2-------|
|----------------3---------------------3----------------------------0-------|

Ay olita del altamar Ay olita del altamar, dime si algún día tu volverás.
|----------------3--------------------3----------0------------------0-------|
|----------------0--------------------0----------1------------------0-------|
|----------------0--------------------0----------2------------------0-------|
|----------------0--------------------0----------2------------------2-------|
|----------------2--------------------2----------0------------------2-------|
|----------------3--------------------3-----------------------------0-------|


|--------------------------------------------------15-12----------------------|
|---------------------------12-15-12--12-12--------------15-12----------------|
|------------------11-12--------------------14-12--------------14--12---------|
|-14--14--14-12-14----------------------------------------------------14-12---|
|-----------------------------------------------------------------------------|
|-----------------------------------------------------------------------------|


|---------------|
|---------------|
|--12-----------| (Se repite 2 veces/play it twice)
|14--14---14----|
|---------------|
|---------------|

(No estoy seguro como escribir lo que dice Ruben en esta parte xD)

Wooooooooooooooooohooooooooooooooooooooooooooooooooooooooooooooooooooooooooo
|-0---------3----------------------------------------------0---------0------|
|-0---------0----------------------------------------------1---------0------|
|-0---------0----------------------------------------------2---------0------|
|-2---------0----------------------------------------------2---------2------|
|-2---------2----------------------------------------------0---------2------|
|-0---------3--------------------------------------------------------0------|

Se repite 2 veces

  Hermanos, hermanas, nuestra vida una olita la mar nuestra abuelita, Regre-
|--------------------------------------------------15-12----------------------|
|---------------------------12-15-12--12-12--------------15-12----------------|
|------------------11-12--------------------14-12--------------14--12---------|
|-14--14--14-12-14----------------------------------------------------14-12---|
|-----------------------------------------------------------------------------|
|-----------------------------------------------------------------------------|

semos alegres pues de regreso hacía la inmensidad wooo!!!!
|---------------------------12-15-12--12-12--------------15-12----------------|
|------------------11-12--------------------14-12--------------14--12---------|
|-14--14--14-12-14----------------------------------------------------14-12---|
|-----------------------------------------------------------------------------|
|-----------------------------------------------------------------------------|


|---------|
|---------|
|--12-----|
|14--14---|
|---------|
|---------|

Gracias, siganme tambien en LaCuerda con el mismo nombre (medsaul),ahí tambien subire 
esta tablatura. comenten y puntúen la tab, gracias.
Tap to rate this tab
# A B C D E F G H I J K L M N O P Q R S T U V W X Y Z