Song name
# A B C D E F G H I J K L M N O P Q R S T U V W X Y Z

Cafe Tacuba - Como Te Extrao tab

No Estoy Completamente Positivo Si Va Asi


e|-----7-----5-----7-----5-----7-----5-----7-----5-|
b|-(x8)7-(x8)5-(x8)7-(x8)5-(x8)7-(x8)5-(x8)7-(x8)5-|
g|-----7-----5-----7-----5-----7-----5-----7-----5-|
d|-------------------------------------------------|
a|-------------------------------------------------|
e|-------------------------------------------------|


e|-----7-----5-----7-----5-----7-----5-----2-|
b|-(x8)7-(x8)5-(x8)7-(x8)5-(x8)7-(x4)5-(x8)2-|
g|-----7-----5-----7-----5-----7-----5-----2-|
d|-------------------------------------------|
a|-------------------------------------------|
e|-------------------------------------------|


e|-----7-----5-----7-----5-----7-----5-----7------5-|
b|-(x8)7-(x8)5-(x8)7-(x8)5-(x8)7-(x8)5-(x8)7--(x8)5-|
g|-----7-----5-----7-----5-----7-----5-----7------5-|
d|--------------------------------------------------|
a|--------------------------------------------------|
e|--------------------------------------------------|


e|-----7-----5-----7-----5-----7-----5-----2------5-----7-----5-----7-|
b|-(x8)7-(x8)5-(x8)7-(x8)5-(x8)7-(x4)5-(x8)2-(x12)5-(x4)7-(x4)5-(x8)7-|
g|-----7-----5-----7-----5-----7-----5-----2------5-----7-----5-----7-|
d|--------------------------------------------------------------------|
a|--------------------------------------------------------------------|
e|--------------------------------------------------------------------|


e|-----7-----5-----7-----5-|
b|-(x8)7-(x8)5-(x8)7-(x8)5-|
g|-----7-----5-----7-----5-|
d|-------------------------|
a|-------------------------|
e|-------------------------|


e|-----7-----5-----2-----7-----5-              --2--|
b|-(x8)7-(x4)5-(x8)2-(x8)7-(x4)5- Asta Que     --2--|
g|-----7-----5-----2-----7-----5- Termine      --2--|
d|------------------------------- La Cancion   -----|
a|-------------------------------              -----|
e|-------------------------------              -----|


No Esta Completo....me falto las notas por como unos 2 minutos veinte..
Tap to rate this tab
 
# A B C D E F G H I J K L M N O P Q R S T U V W X Y Z