Song name
# A B C D E F G H I J K L M N O P Q R S T U V W X Y Z

Cafe Tacuba - El Borrego tab

Band: Cafe Tacuba
Song: El Borrego


tabbed by jam9383@yahoo.com


Intro

e---------------------------------------------------------------------|
B---------------------------------------------------------------------|
G--6---6---6---6-7----7----6------------------------------------------|
D--7---7---7---7-8----8----7------------------------------------------|
A--7---7---7---7-8----8----7------------------------------------------|
E--5---5---5---5-6----6----5------------------------------------------|

Verse

PM------------------- -------------------------------------------------|
e----------------------------------------------------------------------|
B----------------------------------------------------------------------|
G----------------------------------------------------------------------|
D--------------------8-----------------------8-------------------------|
A--7-7-7-7-7-7-7-7-7-8-7-7-7-7-7-7-7-7-7-7-7-8-------------------------|
E--5-5-5-5-5-5-5-5-5-6-5-5-5-5-5-5-5-5-5-5-5-6-------------------------|

PM------------------         ------------------------------------------|
e----------------------------------------------------------------------|
B----------------------------------------------------------------------|
G----------------------------------------------------------------------|
D--------------------10-11-8-------------------------------------------|
A--7-7-7-7-7-7-7-7-7-10-11-8-7-7-7-7-7-7-7-7-7-7-----------------------|
E--5-5-5-5-5-5-5-5-5-8--9--6-5-5-5-5-5-5-5-5-5-5-----------------------|

Pre-Bridge

e---------------------------------------------------------------------|
B---------------------------------------------------------------------|
G---------------------------------------------------------------------|
D---8----10---11------------------------------------------------------|
A---8----10---11------------------------------------------------------|
E---6----8----9-------------------------------------------------------|

Bridge

e---------------------------------------------------------------------|
B---------------------------------------------------------------------|
G---------------------------------------------------------------------|
D---------------------------------------------------------------------|
A---------------------------------------------------------------------|
E--5-3-1-5-3-1-5-3-1-6-6-5-3-1-5-3-1-5-3-1-6-6------------------------|

Break

e----------5---------------4---------------5---------------4----------|
B--5-3-5-3---5-3-5-5-3-5-3---5-3-5-5-3-5-3---5-3-5-5-3-5-3------------|
G---------------------------------------------------------------------|
D---------------------------------------------------------------------|
A---------------------------------------------------------------------|
E---------------------------------------------------------------------|

e--5/8-8-8-8-8-8-7-5--------------------------------------------------|
B---------------------------------------------------------------------|
G---------------------------------------------------------------------|
D---------------------------------------------------------------------|
A---------------------------------------------------------------------|
E---------------------------------------------------------------------|

any comments/corrections e-mail, please rate
Tap to rate this tab
# A B C D E F G H I J K L M N O P Q R S T U V W X Y Z