Song name
# A B C D E F G H I J K L M N O P Q R S T U V W X Y Z

Cage The Elephant - Aint No Rest For The Wicked tab

Band;Cage The Elephant
Song: Aint' No Rest For The Wicked

Tabbed by:Ash9486

Tuning:Open G

(with slide)
Intro (not sure about this):
e|---------------------------------|
B|--0000-------xx--3p0-0--3/5------|
G|--0000--3/0--xx--3p0-0--3/5------|
D|--0000--3/0--xx--3p0-0--3/5------|
A|--0000-------xx------------------|
E|---------------------------------|
(slide to 12 instead of 3 the 2nd time)

Verse:
e|--------------------------------|
B|-0-xx-3-xx-5-xx-----------------|(Sometimes its 12 instead of open)
G|-0-xx-3-xx-5-xx-3---------------|
D|-0-xx-3-xx-5-xx-3--3------------|
A|-0-xx-3-xx-5-xx-3--3------------|
E|-------------------3------------|

Just before the chorus:
e|------------------------------------------|
B|--3/0--3/00-------------------------------|
G|--3/0--3/00-------------------------------|
D|------------------------------------------|
A|------------------------------------------|
E|------------------------------------------|

Chorus:
e|----------------------------------------|
B|--/12-xxxx--00-3/55---------------------|
G|--/12-xxxx--00-3/55---------------------|
D|--/12-xxxx--00-3/55--3------------------|
A|--/12-xxxx--00-3/55--3------------------|
E|---------------------3------------------|

Solo:
e|--------------------------------------------|
B|-11-------------------Then-----11-----------|
G|----10--12------10----At----------10--12-x2-|
D|-------------8--------The-------------------|
A|----------------------End-------------------|
E|--------------------------------------------|

I dont think this is 100% right at all,i just thought ide put this on here as a guide 
as there were no other tabs for this song other than chords.
Tap to rate this tab
# A B C D E F G H I J K L M N O P Q R S T U V W X Y Z