Song name
# A B C D E F G H I J K L M N O P Q R S T U V W X Y Z

Cage The Elephant - Tiny Little Robots tab

-------------------------------------------------------------------------------
	      Tiny Little Robots – Cage The Elephant
-------------------------------------------------------------------------------
Tabbed by: Ben Pattyson	

I think this is accurate. I’m open to corrections. Cheers.

Intro and Verse riff

e|------------------------------------|
B|------------------------------------|
G|-9-9-(x)-12-12-(x)-7-7-(x)----------|
D|-9-9-(x)-12-12-(x)-7-7-(x)-7-7-7-7--|
A|-7-7-(x)-10-10-(x)-5-5-(x)-7-7-7-7--|
E|---------------------------5-5-5-5--|

Pre-Chorus

e|--------------|
B|--------------|
G|-9-9-9-9-9-7--| x4
D|-9-9-9-9-9-7--|
A|-7-7-7-7-7-5--|
E|--------------|

e|--------------|
B|--------------|
G|--------------| x4
D|-7-7-7-7-7-5--|
A|-7-7-7-7-7-5--|
E|-5-5-5-5-5-3--|

e|--------------|
B|--------------|
G|-9-9-9-9-9-7--| x4
D|-9-9-9-9-9-7--|
A|-7-7-7-7-7-5--|
E|--------------|

e|--------------|
B|--------------|
G|--------------| x4
D|-7-7-7-7-7-5--|
A|-7-7-7-7-7-5--|
E|-5-5-5-5-5-3--|

Chorus
  ‘are you scared…’
e|----------------------------------|
B|----------------------------------|
G|-5-5-5-5-5-5-5-5-7-7-7-7-7-7-7-7--| x4
D|-5-5-5-5-5-5-5-5-7-7-7-7-7-7-7-7--|
A|-3-3-3-3-3-3-3-3-5-5-5-5-5-5-5-5--|
E|----------------------------------|

Breakdown (1:55)

e|-----------------------------------------------------------------|
B|-----------------------------------------------------------------|
G|-----------------------------------------------------------------|
D|-2---------------9-7-9----9-7-9----9-7-9-------------------------|
A|-2-------------7--------7--------7--------10-10-10--9h10p9----7--|
E|-0----3s5---3----------------------------------------------10----|

Solo (2:46)

e|------------------------------------------|
B|-----------10s12---12s10-10--------12-10--|
G|-------------------------------9----------|
D|-7-7s9s7----------------------------------|
A|------------------------------------------|
E|------------------------------------------|

e|--------------------------------------------------------------------------|
B|-12-----------12-------12--------12--------12----------12-------12--------|
G|----12----------12--------12--------12--------12----------12-------12-----|
D|-------14-12-------14--------14--------12--------14-12-------14-------14--|
A|--------------------------------------------------------------------------|
E|--------------------------------------------------------------------------|

e|-------------------------------------------------------------------|
B|-------15-------15-------15----------------------------------------|
G|-14h16----14h16----14h16----14-------------------------------------|
D|-------------------------------------------------------------------|
A|--------------------------------14--14-14-14-12---14--14-14-14-12--|
E|-------------------------------------------------------------------|

e|-------------------------------------------15-------(15)-------------------|
B|-------------------------------------17-17----17-17-----17-17v-17v-17v-17v-|
G|-16--16-16-16-14---16--16-16-16-14-----------------------------------------|
D|---------------------------------------------------------------------------|
A|---------------------------------------------------------------------------|
E|---------------------------------------------------------------------------|


| s  slide
| v  vibrato
| x  Mute note
===============================================================================

Tap to rate this tab
 
# A B C D E F G H I J K L M N O P Q R S T U V W X Y Z