Song name
# A B C D E F G H I J K L M N O P Q R S T U V W X Y Z

Cage The Elephant - Back Against The Wall tab

CAGE THE ELEPHANT - BACK AGAINST THE WALL

SOLO TAB
GUITAR 1 (SLIGHTLY DIRTY) TUNED STANDARD (eadgbe)


I love this song but I couldn't find a decent tab for the
solo, so I figured it out myself! Thought i would share it
to save someone else the trouble. There's a possibility it
isnt exactly right but gives you some sort of idea. The
solo starts at roughly 2:46 and goes till the end of the
song. Any comments/concerns/corrections let me know. Enjoy.


E|-------------------------------------------------|
B|-------------------------------------------------|
G|-------------------------------------------------|
D|-------13~---11~-13~-----------13~---11~-13~-----|
A|-11~---------------------11~---------------------|
E|-------------------------------------------------|


E|-------------------------------------------------|
B|-------------------------------------------------|
G|--------11--13-13~-----11h13~-13~-13~-13~-13~----|
D|-11h13-------------------------------------------|
A|-------------------------------------------------|
E|-------------------------------------------------|


E|---------------11h14--14h16----------------------|
B|-12h14--14h16------------------------------------|
G|-------------------------------------------------|
D|-------------------------------------------------|
A|-------------------------------------------------|
E|-------------------------------------------------|


E|----------------------------------------16-------|
B|-14h16-16-16h14-14-14h16-16-16h14-14-14-14^------|
G|-------------------------------------------------|
D|-------------------------------------------------|
A|-------------------------------------------------|
E|-------------------------------------------------|


E|-----12------12------12------12------------------|
B|-12^-----12^-----12^-----12^-----12^-------------|
G|-------------------------------------------------|
D|-------------------------------------------------|
A|-------------------------------------------------|
E|-------------------------------------------------|


E|-7h9-9-9/11-11-11/14-14-14/16--16^---------------|
B|-------------------------------14^---------------|
G|-------------------------------------------------|
D|-------------------------------------------------|
A|-------------------------------------------------|
E|-------------------------------------------------|

Hold the last bend through the ending chorus and till the
end of the song. Please rate.
Tap to rate this tab
# A B C D E F G H I J K L M N O P Q R S T U V W X Y Z