Song name
# A B C D E F G H I J K L M N O P Q R S T U V W X Y Z

Cage The Elephant - Aint No Rest For The Wicked Acoustic tab

Tabbed by A.R.Bleich    arbleich@yahoo.com
tuning: Open G ( DGDGBd )

Cage The Elephant - Ainít No Rest for the Wicked


INTRO

intro part 1
|----------------------------------------------|
|----------------------------------------------|
|--0h3p0h3/5p0------0h3p0-3/5p0--3/5-5-5\3-3-3-|
|--0h3p0h3/5p0------0h3p0-3/5p0--3/5-5-5\3-3-3-|
|--0h3p0h3/5p0------0h3p0-3/5p0--3/5-5-5\3-3-3-|
|----------------------------------------------|



intro part 2
|------------------------------------------|
|------------------------------------------|
|--0h3p0h3/5p0------0h3p0----0h3p0--0h3p0--|
|--0h3p0h3/5p0------0h3p0----0h3p0--0h3p0--|
|--0h3p0h3/5p0------0h3p0----0h3p0--0h3p0--|
|------------------------------------------|


VERSE

Verse   play three times
|-----------------------------------------------------------|
|-----------------------------------------------------------|
|-0-0-xxxxxx-3-3-xxxxxx-5-5-xxxxxx-3-3--xx------------------|
|-0-0-xxxxxx-3-3-xxxxxx-5-5-xxxxxx-3-3--xx--3-3--xx---------|
|-0-0-xxxxxx-3-3-xxxxxx-5-5-xxxxxx-3-3--xx--3-3--xx---------|
|-------------------------------------------3-3--xx---------|



pre chorus (end of verse)
|----------------------------------------------------------|
|----------------------------------------------------------|
|-0-0-xxxxxx-3-3-xxxxxx-5-5-xxxxxx---0h3p0----0h3p0-0h3p0--|
|-0-0-xxxxxx-3-3-xxxxxx-5-5-xxxxxx---0h3p0----0h3p0-0h3p0--|
|-0-0-xxxxxx-3-3-xxxxxx-5-5-xxxxxx---0h3p0----0h3p0-0h3p0--|
|----------------------------------------------------------|
       

CHORUS

Chorus  part1
|---------------------------------|                            IMPORTANT!!!
|---------------------------------|                             CHORUS:
|--3/12~\--xxxxx--3/5-5-5-5p0-----|                 play part1 4 times  , then play part2  twice
|--3/12~\--xxxxx--3/5-5-5-5p0-----|                        then play part1 2 more times
|--3/12~\--xxxxx--3/5-5-5-5p0-----|    
|---------------------------------|



Chorus part2
|---------------------------------|                 
|---------------------------------|                    
|--3/12~\10/12\10-3/5~-5/7-7-0----|        
|--3/12~\10/12\10-3/5~-5/7-7-0----|            
|--3/12~\10/12\10-3/5~-5/7-7-0----|    
|---------------------------------|

Tap to rate this tab
 
# A B C D E F G H I J K L M N O P Q R S T U V W X Y Z