Song name
# A B C D E F G H I J K L M N O P Q R S T U V W X Y Z

Cage The Elephant - Shake Me Down tab

I'm very sure about the chords but the intro is up to debate. If you positively 
know the intro feel free to make a new tab with the correct intro. Enjoy! Can't 
wait for the album. 

Intro/First Verse (Eigth Notes):
e-----0--------0---|
B------------------|
G------------------|
D---2---2----2---2-| X12
A-0--------0-------|
E------------------|

First Verse Part Two:
e-----5--------4---|
B------------------|
G------------------|
D-------7----6---6-| 
A---7------4-------|
E-5----------------|

e-----2--------2---|
B------------------|
G------------------|
D-------2----4---4-| X4 
A---4------2-------|
E-2----------------|

First Short Chorus (Quarter Notes):
e-0-0-0-0-0-0-0-0--|
B-0-0-0-0-0-0-0-0--|
G-1-1-1-1-1-1-1-1--|
D-2-2-2-2-2-2-2-2--|
A-2-2-2-2-2-2-2-2--|
E-0-0-0-0-0-0-0-0--|

First Post Chorus(Studio Effect on last note) :
e-----0--------0---|0---0----0----0--|
B------------------|-----------------|
G------------------|-----------------|
D---2---2----2---2-|-----------------| 
A-0--------0-------|-----------------|
E------------------|-----------------|

Second Verse (Eigth Notes):
e-----0--------0---|
B------------------|
G------------------|
D---2---2----2---2-| X8
A-0--------0-------|
E------------------|

Second Verse Part Two:
e-----------------------|
B-----------------------|
G------------6-6-6-6-6--|
D-7-7-7-7-7--6-6-6-6-6--|
A-7-7-7-7-7--4-4-4-4-4--|
E-5-5-5-5-5-------------|

e-----------------------|
B-----------------------|
G------------4-4-4-4-4--|
D-4-4-4-4-4--4-4-4-4-4--| X3
A-4-4-4-4-4--2-2-2-2-2--|
E-2-2-2-2-2-------------|

e-----------------------|
B-----------------------|
G------------6-6-6-6-6--|
D-7-7-7-7-7--6-6-6-6-6--|
A-7-7-7-7-7--4-4-4-4-4--|
E-5-5-5-5-5-------------|

e----------------|
B----------------|
G----------------|
D-4--4--4--4-----| 
A-4--4--4--4-----|
E-2--2--2--2-----|

Chorus (Quarter Notes) :
e-0-0-0-0-0-0-0-0--|
B-0-0-0-0-0-0-0-0--|
G-1-1-1-1-1-1-1-1--|
D-2-2-2-2-2-2-2-2--|
A-2-2-2-2-2-2-2-2--|
E-0-0-0-0-0-0-0-0--|

Listen For Timing
e------------|0--0--0--0|
B------------|0--0--0--0|
G------------|1--1--1--1|
D-7-7-7--6-4-|2--2--2--2| X3
A-7-7-7--6-4-|2--2--2--2|
E-5-5-5--4-2-|0--0--0--0|


Breakdown (Listen For Timing):

e-----------|
B-----------|
G--------7--|
D--------7-6| X3
A-7-7-7--5-6|
E-5-5-5----4|

e-----------|
B-----------|
G-----------|
D-4--4--4--4| Repeat whole Breakdown 3X
A-4--4--4--4|
E-2--2--2--2|

Bridge (First Part Whole Notes, Second Part Eigth Notes):
e-----------------|----------------|
B-----------------|----------------|
G-----------------|----------------|
D-2-2-2-2-4-4-4-7-|7-7-7-7-7-7-7-7-| X3
A-2-2-2-2-4-4-4-7-|7-7-7-7-7-7-7-7-|
E-0-0-0-0-2-2-2-5-|5-5-5-5-5-5-5-5-|

e-5-------|4-----------|-----------|4-----------|
B-5-------|4-----------|-----------|4-----------|
G-6-------|6-----------|-----------|6-----------|
D-7-------|6-----------|2----------|6-----------|
A-7-------|4-----------|2----------|4-----------|
E-5-------|------------|0----------|------------|

e-5-------|4-----------|----------------|----------------|
B-5-------|4-----------|----------------|----------------|
G-6-------|6-----------|----------------|6-6-6-6-6-6-6-6-|
D-7-------|6-----------|2-2-2-2-2-2-2-2-|6-6-6-6-6-6-6-6-|
A-7-------|4-----------|2-2-2-2-2-2-2-2-|4-4-4-4-4-4-4-4-|
E-5-------|------------|0-0-0-0-0-0-0-0-|----------------|

Second Part:
e-----------------|----------------|----------------|----------------|
B-----------------|----------------|----------------|----------------|
G-----------------|6-6-6-6-6-6-6-6-|----------------|6-6-6-6-6-6-6-6-|
D-7-7-7-7-7-7-7-7-|6-6-6-6-6-6-6-6-|2-2-2-2-2-2-2-2-|6-6-6-6-6-6-6-6-| 
A-7-7-7-7-7-7-7-7-|4-4-4-4-4-4-4-4-|2-2-2-2-2-2-2-2-|4-4-4-4-4-4-4-4-|
E-5-5-5-5-5-5-5-5-|----------------|0-0-0-0-0-0-0-0-|----------------|

e-----------------|----------------|
B-----------------|----------------|
G-----------------|6-6-6-6-6-6-6-6-|
D-7-7-7-7-7-7-7-7-|6-6-6-6-6-6-6-6-|
A-7-7-7-7-7-7-7-7-|4-4-4-4-4-4-4-4-|
E-5-5-5-5-5-5-5-5-|----------------|


Chorus (Quarter Notes) :
e-0-0-0-0-0-0-0-0--|
B-0-0-0-0-0-0-0-0--|
G-1-1-1-1-1-1-1-1--|
D-2-2-2-2-2-2-2-2--| X3
A-2-2-2-2-2-2-2-2--|
E-0-0-0-0-0-0-0-0--|

Outro (Eigth Notes):
e-----0--------0---|
B------------------|
G------------------|
D---2---2----2---2-| X9
A-0--------0-------|
E------------------|

It's all in order. Email me corrections at pye3214@gmail.com
Tap to rate this tab
 
# A B C D E F G H I J K L M N O P Q R S T U V W X Y Z