Cage The Elephant - Flow tab

Tabbed by: Crosby A.

Hey guys! I love, love, love Cage The Elephant! This is the acoustic version of 
the song, saw it on Youtube. This is my first tab, 
and I could only figure out the first part, haha. Here it is!

 Lookin' out my window, wonder how it came to be
e|---2---2---0---2---5---2---2---0---2---0-|
B|----------------------------------------2|
G|-----------------------------------------|
D|-----------------------------------------|
A|-----------------------------------------|
E|-----------------------------------------|

 Feels just like a tempo, lifted by a gentle breeze
e|---2---2---0---2---5---2---2---0---2---0-|
B|----------------------------------------2|
G|-----------------------------------------|
D|-----------------------------------------|
A|-----------------------------------------|
E|-----------------------------------------|

 Ugly as a suitcase, I could see it stretch for days
e|---2---2---0---2---5---2---2---0---2---0-|
B|----------------------------------------2|
G|-----------------------------------------|
D|-----------------------------------------|
A|-----------------------------------------|
E|-----------------------------------------|

 Hangin' on a sunset, slowly trampled by the rain
e|---2---2---0---2---5---2---2---0---2---0-|
B|----------------------------------------2|
G|-----------------------------------------|
D|-----------------------------------------|
A|-----------------------------------------|
E|-----------------------------------------|

 Way to long, hold on, hold on
e|---0---2---------------------------------|
B|--------3---0---2---0---2----------------|
G|-----------------------------------------|
D|-----------------------------------------|
A|-----------------------------------------|
E|-----------------------------------------|

 Dead and gone, so long, hold on
e|---0---2---------------------------------|
B|--------3---0---2---0---2----------------|
G|-----------------------------------------|
D|-----------------------------------------|
A|-----------------------------------------|
E|-----------------------------------------|

Chorus is repeated (Way to long, hold on..).
Then there's a solo part which I don't know.
Hope this helps you a little. Thanks for checking out my tab! (:

 -Crosby.
Tap to rate this tab
 
# A B C D E F G H I J K L M N O P Q R S T U V W X Y Z