Song name
# A B C D E F G H I J K L M N O P Q R S T U V W X Y Z

Cage The Elephant - Shake Me Down tab

-------------------------------------------------------------------------------
			    Cage The Elephant - Shake Me Down
-------------------------------------------------------------------------------
Tabbed by: Grant H.
Email: fishinator1337@gmail.com

Some other tabs have the correct chords but all the intros are incorrect. Here is an 
accurate one. Email me concerns about other parts of the song you can't find a good tab for.

First Part:
e|----------------------|I
B|------5-------5-------|I
G|----6--6----6--6------|I
D|--7-------6-----------|I
A|----------------------|I
E|----------------------|I

After the first chord strum:
e|------5-------4--------------------------|
B|---------------------7------7------------|
G|----6--6----6--6---6--6---7--7-----------|
D|--7-------7-------7------9---------------|
A|-----------------------------------------|
E|-----------------------------------------|

Then there is another chord strum and the first part is played one time with a repeating 
effect on the last f note (6 on the b string). After that there is a tiny drum break 
and then the first part gets repeated about 10 more times.
Tap to rate this tab
 
# A B C D E F G H I J K L M N O P Q R S T U V W X Y Z