Song name
# A B C D E F G H I J K L M N O P Q R S T U V W X Y Z

Cage The Elephant - Kids tab

I'm 90% sure this is right, but I probably left out a few slides and bends. This 
song was originally written by MGMT and covered by Cage the Elephant, they play 
the song slightly different and there were no tabs for it, so I decided to try. 
This is my first tab, enjoy!

Intro 
|---------------14-16-14-----------------------|
|---------14-17----------17-14-----------------|
|---14-16------------------------16------------|
|----------------------------------------------|
|----------------------------------------------|
|----------------------------------------------|

|---------------14-16-14-----------------------|
|---------14-17----------17-14---15-14---------|
|---14-16-----------------------------16-14----|
|----------------------------------------------|
|----------------------------------------------|
|----------------------------------------------|

Verse 

|----------------------------------------------|
|-------14-14----------------------------------|
|-14-14-------14b---13-14-13-14-16-14-13-------|
|----------------------------------------------|
|----------------------------------------------|
|----------------------------------------------|

|----------------------------------------------|
|---------------------------17-------17--------|
|---------------------------18-------18--------|
|----------------------------------------------|
|----------------------------------------------|
|----------------------------------------------|

Chorus

|---------------14-16-14-----------------------|
|---------14-17----------17-14-----------------|
|---14-16------------------------16------------|
|----------------------------------------------|
|----------------------------------------------|
|----------------------------------------------|


Bridge
|-----------14----------------19-17------------|
|-----14h17----17-------17h19-------19b--17b---|
|14h16------------16h18------------------------|  x2
|----------------------------------------------|  
|----------------------------------------------|
|----------------------------------------------|


|----------------------------------------------|
|-----------14--------14------12---------------|
|-----14---------14-----------------12---------|
|----------------------------------------------|
|----------------------------------------------|
|----------------------------------------------|

Order:
Intro
Verse
Chorus
Verse
Chorus
Bridge

b: Bend
h: hammer on
Tap to rate this tab
 
# A B C D E F G H I J K L M N O P Q R S T U V W X Y Z