Song name
# A B C D E F G H I J K L M N O P Q R S T U V W X Y Z

Cage The Elephant - Around My Head Acoustic tab

-------------------------------------------------------------------------------
                AROUND MY HEAD (ACOUSTIC) - Cage the Elephant
-------------------------------------------------------------------------------
Tabbed by: Patrick Bozek
E-mail: patrick_bozek@hotmail.com

Tuning: Standard

This is Around My Head as performed inside X103.9's Sanderson Ford Studio X.
The second guitar was really hard to hear, and yeah, don't feel like tabbing
strumming patterns, so you'll get some practice with your aural skills.
Live: http://www.youtube.com/watch?v=78GVAYFRSmA

Intro: Guitar 1

e|--2--0--| x8
B|--3--2--|
G|--2--2--|
D|--0--2--|
A|-----0--|
E|--------|

Intro: Guitar 2 (comes in after the 4th time Guitar 1 plays the above)

e|-----------------| x4
B|------7----------|
G|--7-----7-----6--|
D|----------7------|
A|-----------------|
E|-----------------|

Verse: Guitar 1

e|--2-----2-----2-----------| x4 (on the fourth time end on the Gmaj)
B|--3-----3-----3-----------|
G|--2--3--2--3--2--3--4--3--|
D|--0--4--0--4--0--4--5--4--|
A|-----4-----4-----4--5--4--|
E|-----2-----2-----2--3--2--|

Verse: Guitar 2 (vibrato throughout/all upstrokes)

e|--0--0--0--0--0--0--0--0--| x3
B|--7--0--7--0--7--0--0--0--|    
G|--7--6--7--6--7--6--7--6--|
D|--0--7--0--7--0--7--7--7--|
A|--0--0--0--0--0--0--0--0--|
E|--------------------------|

e|--0--0--0--0--0--0--0--------0--|
B|--7--0--7--0--7--0--0-----7--0--|    
G|--7--6--7--6--7--6--7--9--7-----|
D|--0--7--0--7--0--7--7--9--------|
A|--0--0--0--0--0--0--0-----------|
E|--------------------------------|

Pre-Chorus: Guitar 1

e|--0--| x16
B|--2--|
G|--2--|
D|--2--|
A|--0--|
E|-----|

Pre-Chorus: Guitar 2

e|---------------------| x8
B|----0---0----0----0--|
G|--9---9---11---11----|
D|---------------------|
A|---------------------|
E|---------------------|

Chorus: Guitar 1

e|--2--0--------| x4
B|--3--2--------|
G|--2--2--3--4--|
D|--0--2--4--5--|
A|-----0--4--5--|
E|--------2--3--|

Chorus: Guitar 2

e|--------------------------------------------|
B|----7---7-------------10----10-12----12-----|
G|--7---7-----6---6--11----11-------11----11--|
D|----------7---7-----------------------------|
A|--------------------------------------------|
E|--------------------------------------------|

e|-----------------------------------|
B|----7---7--------------------------|
G|--7---7-----6---6---3---3---4---4--|
D|----------7---7---4---4---5---5----|
A|-----------------------------------|
E|-----------------------------------|

Intro: Guitar 1

e|--2--0--| x4
B|--3--2--|
G|--2--2--|
D|--0--2--|
A|-----0--|
E|--------|

Intro: Guitar 2

e|-----------------| x4
B|------7----------|
G|--7-----7-----6--|
D|----------7------|
A|-----------------|
E|-----------------|

Verse: Guitar 1

e|--2-----2-----2-----------| x4 (on the fourth time end on the Gmaj)
B|--3-----3-----3-----------|
G|--2--3--2--3--2--3--4--3--|
D|--0--4--0--4--0--4--5--4--|
A|-----4-----4-----4--5--4--|
E|-----2-----2-----2--3--2--|

Verse: Guitar 2 (vibrato throughout/all upstrokes)

e|--0--0--0--0--0--0--0--0--| x3
B|--7--0--7--0--7--0--0--0--|    
G|--7--6--7--6--7--6--7--6--|
D|--0--7--0--7--0--7--7--7--|
A|--0--0--0--0--0--0--0--0--|
E|--------------------------|

e|--0--0--0--0--0--0--0--------0--|
B|--7--0--7--0--7--0--0-----7--0--|    
G|--7--6--7--6--7--6--7--9--7-----|
D|--0--7--0--7--0--7--7--9--------|
A|--0--0--0--0--0--0--0-----------|
E|--------------------------------|

Pre-Chorus: Guitar 1

e|--0--| x16
B|--2--|
G|--2--|
D|--2--|
A|--0--|
E|-----|

Pre-Chorus: Guitar 2

e|---------------------| x8
B|----0---0----0----0--|
G|--9---9---11---11----|
D|---------------------|
A|---------------------|
E|---------------------|

Chorus: Guitar 1

e|--2--0--------| x4
B|--3--2--------|
G|--2--2--3--4--|
D|--0--2--4--5--|
A|-----0--4--5--|
E|--------2--3--|

Chorus: Guitar 2

e|--------------------------------------------|
B|----7---7-------------10----10-12----12-----|
G|--7---7-----6---6--11----11-------11----11--|
D|----------7---7-----------------------------|
A|--------------------------------------------|
E|--------------------------------------------|

e|-----------------------------------|
B|----7---7--------------------------|
G|--7---7-----6---6---3---3---4---4--|
D|----------7---7---4---4---5---5----|
A|-----------------------------------|
E|-----------------------------------|

Bridge: Guitar 1

e|--------| x4
B|--------|
G|--3--4--|      (end on the F#maj)
D|--4--5--|
A|--4--5--|
E|--2--3--|

Bridge: Guitar 2

e|----------| x4
B|----------|
G|--11--12--|      (end on the F#maj)
D|--11--12--|
A|--9---10--|
E|--9---10--|

Chorus: Guitar 1

e|--2--0--------| x4
B|--3--2--------|
G|--2--2--3--4--|
D|--0--2--4--5--|
A|-----0--4--5--|
E|--------2--3--|

Chorus: Guitar 2

e|--+7-----------+7--|
B|--+7-------+7------|
G|--+7---+7----------|
D|-------------------|
A|-------------------|
E|-------------------|

e|-----------------------------------|
B|----7---7--------------------------|
G|--7---7-----6---6---3---3---4---4--|
D|----------7---7---4---4---5---5----|
A|-----------------------------------|
E|-----------------------------------|

Outro: Guitar 1

e|--2--0--------| x3
B|--3--2--------|
G|--2--2--3--4--|
D|--0--2--4--5--|
A|-----0--4--5--|
E|--------2--3--|

e|-------| x24
B|--5----|
G|--7b9--|
D|-------|
A|-------|
E|-------|

Guitar 1

e|--0--| x24
B|--2--|
G|--2--|
D|--2--|
A|--0--|
E|-----|

Guitar 2

e|---------------------| x4
B|----0---0----0----0--|
G|--9---9---11---11----|
D|---------------------|
A|---------------------|
E|---------------------|

Guitar 1 and 2 end on:
e|--2--| 
B|--3--|
G|--2--|
D|--0--|
A|-----|
E|-----|

The end, have fun.

************************************

| /   slide up
| \   slide down
| h   hammer-on
| p   pull-off
| ~   vibrato
| +   harmonic
| x   Mute note
| b   Bend
| pb  Pre-bend
| br  Bend release
| pbr Pre-bend release
| brb Bend release bend

************************************
Tap to rate this tab
# A B C D E F G H I J K L M N O P Q R S T U V W X Y Z